Guitaretab - guitar tabs
Song name
# A B C D E F G H I J K L M N O P Q R S T U V W X Y Z

Kids Like Us - Holy Shit tab

Intro
|-------------------------------------|
|-------------------------------------|
|-------------------------------------|
|-3-5-6-3-5-6-0~--3-5-6-0~--x2-3-5-6X-|
|-3-5-6-3-5-6-0~--3-5-6-0~-----3-5-6X-|
|-3-5-6-3-5-6-0~--3-5-6-0~-----3-5-6X-|
[ Tab from: http://www.guitaretab.com/k/kids-like-us/161306.html ]
Fill x2
|----------------------------------------------------------------|
|----------------------------------------------------------------|
|-----888-777--------------------------888-777-------------------|
|-000-888-777-666-555-888-333-666--000-888-777-666-555-888-6-5-3-|
|-000-666-555-666-555-888-333-666--000-666-555-666-555-888-6-5-3-|
|-000---------666-555-888-333-666--000---------666-555-888-6-5-3-|
                                                           . . .

2-Step
|---------------------------|
|---------------------------|
|-----88-77-----------------|
|-000-88-77-66-55-88-33--x4-|
|-000-66-55-66-55-88-33-----|
|-000-------66-55-88-33-----|

Bridge
Guitar 1
|----|---------------------------------|-----------------------------------|
|----|---------------------------------|-----------------------------------|
|----|-7777/5-7777---------------------|-----------------------------------|
|-0~-|-7777/5-7777-xxxx-66666-33333-x4-|-0~0~0~0~000~0~0~0~000~0~0~0~0~0~0~|
|-0~-|-5555/3-5555-xxxx-66666-33333----|-0~0~0~0~000~0~0~0~000~0~0~0~0~0~0~|
|-0~-|-------------xxxx-66666-33333----|-0~0~0~0~000~0~0~0~000~0~0~0~0~0~0~|

pretty much it, you can figure out the rest on your own
Related for Holy Shit tab
Advertisement will be closed in 10 seconds