Song name
# A B C D E F G H I J K L M N O P Q R S T U V W X Y Z

Kids Like Us - Meet Me At The Swingset tab

Artist: Kids Like Us
Song: Meet Me At The Swingset
Album: The 80's Are Dead
Tuning: Drop D

Intro x1
|-----------------------------------------|
|-----------------------------------------|
|-----------------------------------------|
|-0~~~6666-5555-33-888-0000-6666-11111111-|
|-0~~~6666-5555-33-888-0000-6666-11111111-|
|-0~~~6666-5555-33-888-0000-6666-11111111-|

Verse x2
|------------------------------------------|
|------------------------------------------|
|------------------------------------------|
|-0000-6666-5555-33-888-0000-6666-11111111-|
|-0000-6666-5555-33-888-0000-6666-11111111-|
|-0000-6666-5555-33-888-0000-6666-11111111-|

2-Step x4
|-----------------------------------------|
|-----------------------------------------|
|-8/7------8-77-5-7-77--8/7------88888888-|
|-8/7-0000-8-77-5-7-77--8/7-0000-88888888-|
|-6/5-0000-6-55-3-5-55--6/5-0000-66666666-|
|-----0000------------------0000----------|
PM    ....                  ....

Bridge x1
|------Natural-Harmonics-7~~~~-----|
|----------------------------------|
|----------------------------5~~~~-|
|-0~~~-----------------------------|
|-0~~~-----------------------------|
|-0~~~-----------------------------|

Breakdown x8 I Think
|---------------|
|---------------|
|---------------|
|-00000-00000h1-|
|-00000-00000h1-|
|-00000-00000h1-|
PM..... .....
Tap to rate this tab
# A B C D E F G H I J K L M N O P Q R S T U V W X Y Z