Song name
# A B C D E F G H I J K L M N O P Q R S T U V W X Y Z

Kids Like Us - Gator Smash tab

----------------------------------------------------------------------------
                       GATOR SMASH - Kids Like Us
----------------------------------------------------------------------------
Tabbed By:xlokedogx

Tuning: Drop D

intro

e|------------------------------------------------------------------------|
B|------------------------------------------------------------------------|
G|---------------5-7--------------------------------5-7-------------------|
D|6-00-3-5-3/5-0-5-7-0-0000000000000-6-00-3-5-3/5-5-7-0-000000----0-0-0-0-|
A|6-00-3-5-3/5-0-3-5-0-0000000000000-6-00-3-5-3/5-3-5-0-000000----0-0-0-0-|
E|6-00-3-5-3/5-0-----0-0000000000000-6-00-3-5-3/5-----0-000000----0-0-0-0-|
                       pm.........pm                    pm..pm
verse i

e|----------------------------------|
B|----------------------------------|
G|----------------------------------|
D|6-00-0305-00-0306-00-0305---------|
A|6-00-0305-00-0306-00-0305-03030---|
E|6-00-0305-00-0306-00-0305-030303--|b

verse ii

e|---------------------------------------------------------------------|
B|---------------------------------------------------------------------|
G|---55/7-5------7xx7/5-77/5------7xx7/5-77/5------7xx7/5-77/5---------|
D|0--55/7-5-3560-7xx7/5-77/5-3560-7xx7/5-77/5-3560-7xx7/5-77/5-3560--0-|
A|0--33/5-3-3560-5xx5/3-55/3-3560-5xx5/3-55/3-3560-5xx5/3-55/3-3560--0-|
E|0---------3560-------------3560-------------3560-------------3560--0-|

verse iii

e|------------------------------------------------------------------|
B|------------------------------------------------------------------|
G|------------5/7-------------5/7-------------5/7-------------------|
D|006p03/565305/7-006p03/565305/7-006p03/565305/7-006p03/56-6666530-|
A|006p03/565303/5-006p03/565303/5-006p03/565303/5-006p03/56-6666530-|
E|006p03/56530----006p03/56530----006p03/56530----006p03/56-6666530-|

verse iii part ii

e|---------------------------------------------------------------------|
B|---------------------------------------------------------------------|
G|-------------5/7--------------5/7--------------5/7-------------------|
D|006p03/5060035/7-006p03/5060035/7-006p03/5060035/7-006p03/56-6666530-|
A|006p03/5060033/5-006p03/5060033/5-006p03/5060033/5-006p03/56-6666530-|
E|006p03/506003----006p03/506003----006p03/506003----006p03/56-6666530-|

outro

e|-------------------|
B|-------------------|
G|---555-------------|
D|00-555-330-065p0---|
A|00-333-330-065p0---|
E|00-----330-065p03b-|
Tap to rate this tab
# A B C D E F G H I J K L M N O P Q R S T U V W X Y Z