Song name
# A B C D E F G H I J K L M N O P Q R S T U V W X Y Z

Kids Like Us - Dont Fake The Punk tab

Intro
|----------------------------------------------------------|
|----------------------------------------------------------|
|------7777------7777------7777------7777777---------------|
|-33-0-xxxx-33-0-xxxx-33-0-xxxx-33-0-xxxxxxx-333333/5-2222-|
|-33-0-5555-33-0-5555-33-0-5555-33-0-5555555-333333/5-2222-|
|-33-0------33-0------33-0------33-0---------333333/5-2222-|

|----------------------------------------|
|----------------------------------------|
|------7777------7777777-----------------|
|-33-0-xxxx-33-0-xxxxxxx-333333/5-222222-|
|-33-0-5555-33-0-5555555-333333/5-222222-|
|-33-0------33-0---------333333/5-222222-|

Verse
|----------------------------------|
|----------------------------------|
|---xxxx---xxxx---xxxx-------------|
|-0-xxxx-0-xxxx-0-xxxx-666-555--x4-|
|-0-xxxx-0-xxxx-0-xxxx-666-555-----|
|-0-xxxx-0-xxxx-0-xxxx-666-555-----|

Fill
|------------------------|----------------------|
|------------------------|----------------------|
|------888---------------|------888-------------|
|-0000-xxx-3h03h03h0-666-|-0000-xxx-3/555-3/666-|
|-0000-666-3h03h03h0-666-|-0000-666-3/555-3/666-|
|-0000-----3h03h03h0-666-|-0000-----3/555-3/666-|

|--------------------|----------------------|
|--------------------|----------------------|
|------888-----------|------888-------------|
|-0000-xxx-00000-666-|-0000-xxx-3/555-3/666-|
|-0000-666-00000-666-|-0000-666-3/555-3/666-|
|-0000-----00000-666-|-0000-----3/555-3/666-|

2-Step
|------------------------------------------------------------------|
|------------------------------------------------------------------|
|---------------------8/55/101010-----------------------8/777-xxxx-|
|-0-000-6-5555--0-000-x/xx/ x x x---0-000-6-5555--0-000-x/xxx-xxxx-|
|-0-000-6-5555--0-000-6/55/ 8 8 8---0-000-6-5555--0-000-6/555-xxxx-|
|-0-000-6-5555--0-000---------------0-000-6-5555--0-000-------xxxx-|
PM  ...           ...                 ...           ...

|-----------------------------------------|-------------------------------|
|-----------------------------------------|-------------------------------|
|-------8/77/101010--------8/777-xxxx-----|-888-777-555-333-555-333-3/5/3-|
|-0-000-x/xx/ x x x--0-000-x/xxx-xxxx--x2-|-xxx-xxx-xxx-xxx-xxx-xxx-x/x/x-|
|-0-000-6/55/ 8 8 8--0-000-6/555-xxxx-----|-666-555-333-111-333-111-1/3/1-|
|-0-000--------------0-000-------xxxx-----|-------------------------------|
PM  ...                ...                 

Breakdown                             End on
|-------------------------------------|---|
|-------------------------------------|---|
|-----------888-777-555-33333/5/3-----|---|
|-000000000-xxx-xxx-xxx-xxxxx/x/x--x3-|-0-|
|-000000000-666-555-333-11111/3/1-----|-0-|
|-000000000---------------------------|-0-|
Tap to rate this tab
# A B C D E F G H I J K L M N O P Q R S T U V W X Y Z