Song name
# A B C D E F G H I J K L M N O P Q R S T U V W X Y Z

Kids Like Us - Skate And Annoy tab

Artist: Kids Like Us
Song: Skate and Annoy
Album: The 80's Are Dead
Tuning: Drop D

Intro x2
|---------------------------|
|---------------------------|
|--------5-3-7--------5-3-2-|
|-555-33-5-3-7-555-33-5-3-2-|
|-555-33-3-1-5-555-33-3-1-0-|
|-555-33-------555-33-------|

Verse x1
|-------------------------------------------------|
|-------------------------------------------------|
|-7777-8888-----------------7777-8888-10--8-7-5-7-|
|-7777-8888-8888-101010-8-7-7777-8888-10--8-7-5-7-|
|-5555-6666-8888-101010-8-7-5555-6666--8--6-5-3-5-|
|-----------8888-101010-8-7-----------------------|

|----------------------------------------|
|----------------------------------------|
|-7777-8888-----------------7777-8888-10-|
|-7777-8888-8888-101010-8-7-7777-8888-10-|
|-5555-6666-8888-101010-8-7-5555-6666--8-|
|-----------8888-101010-8-7--------------|

Fill x1
|------------|
|------------|
|------------|
|-1010101010-|
|-1010101010-|
|--8-8-8-8-8-|

Bridge x2
|---------------------|
|---------------------|
|-------3333-55-------|
|-55555-3333-55-8-6-5-|
|-55555-1111-33-8-6-5-|
|-55555---------8-6-5-|

Repeat Intro
Tap to rate this tab
# A B C D E F G H I J K L M N O P Q R S T U V W X Y Z