Song name
# A B C D E F G H I J K L M N O P Q R S T U V W X Y Z

Kids Like Us - Carry Your Ghost tab

Artist: Kids Like Us
Song: Carry Your Ghost
Album: The 80's Are Dead
Tuning: Drop D

Intro x2                                       x1
|---------------------------------------------|------|
|---------------------------------------------|------|
|-7777777----5555-------7777777----8888888----|-7777-|
|-7777777-66-5555-55-33-7777777-66-8888888-33-|-7777-|
|-5555555-66-3333-55-33-5555555-66-6666666-33-|-5555-|
|---------66------55-33---------66---------33-|------|

Verse x1
|-------------------------------------------------------------------------|
|-------------------------------------------------------------------------|
|-7777----88888----7777----888-101010-7777----88888----7777----88888------|
|-7777-66-88888-33-7777-66-888-101010-7777-66-88888-33-7777-66-88888-33-0-|
|-5555-66-66666-33-5555-66-666--8-8-8-5555-66-66666-33-5555-66-66666-33-0-|
|------66-------33------66-----------------66-------33------66-------33-0-|

Chorus x1
|------------------------------------------------------------------|
|------------------------------------------------------------------|
|------------------------------------------------------------------|
|-55555555-00000000-55555555-0000000000-55555555-00000000-55555555-|
|-55555555-00000000-55555555-0000000000-55555555-00000000-55555555-|
|-55555555-00000000-55555555-0000000000-55555555-00000000-55555555-|
PM         ........

Fill x4      x4 (Ring the 4th time)
|-----------|-----------------------|
|-----------|-----------------------|
|-777777-88-|-----------------------|
|-xxxxxx-xx-|-0---------------------|
|-555555-66-|-0---------------------|
|-----------|-0---------------------|

Outro Gtr.I x4              Gtr.II x4
|--------------------------|---------------------------------|
|--------------------------|---------------------------------|
|--------------------------|-1414141414-1212121212-1515-1717-|
|-00000-33333-55555-1111h0-|--x-x-x-x-x--x-x-x-x-x--x-x--x-x-|
|-00000-33333-55555-1111h0-|-1212121212-1010101010-1313-1515-|
|-00000-33333-55555-1111h0-|---------------------------------|
Tap to rate this tab
 
# A B C D E F G H I J K L M N O P Q R S T U V W X Y Z