Song name
# A B C D E F G H I J K L M N O P Q R S T U V W X Y Z

Kids Like Us - Dog Food tab

Artist: Kids Like Us
Song: Dog Food
Album: Outta Control
Tuning: Drop D

Intro x8
|------------------------|
|------------------------|
|-----3\5----------------|
|-1h0-3\5-1-0-1h0-1h0-00-|
|-1h0-1\3-1-0-1h0-1h0-00-|
|-1h0-----1-0-1h0-1h0-00-|
PM        . .         ..

Fill x1
|------------|
|------------|
|------------|
|-0-1-3-1-00-|
|-0-1-3-1-00-|
|-0-1-3-1-00-|

Chorus x4                    x1         x1
|---------------------------|----------|-------------------|
|---------------------------|----------|-------------------|
|-----------3-5-------------|----------|-------------------|
|-0000-1111-3-5-3333-11-3-1-|-0--------|-12/---------------|
|-0000-1111-1-3-3333-11-3-1-|-0--------|-12/Fingerslide-In-|
|-0000-1111-----3333-11-3-1-|-0--------|-12/---------------|

2-Step x4             x1
|--------------------|-----------|
|--------------------|-----------|
|---------555--------|-----------|
|-0000000-555-6-6-33-|-0---------|
|-0000000-333-6-6-33-|-0---------|
|-0000000-----6-6-33-|-0---------|
PM ......

Chorus x1
|------------------------------------------------|
|------------------------------------------------|
|-----------3-5-----------------------3-5--------|
|-0000-1111-3-5-3333-11-3-1-0000-1111-3-5-3333-1-|
|-0000-1111-1-3-3333-11-3-1-0000-1111-1-3-3333-1-|
|-0000-1111-----3333-11-3-1-0000-1111-----3333-1-|

x2
|---------------------------|
|---------------------------|
|-----------3-5-------------|
|-0000-1111-3-5-3333-11-3-1-|
|-0000-1111-1-3-3333-11-3-1-|
|-0000-1111-----3333-11-3-1-|

Fill x1
|-----------------|
|-----------------|
|-----------------|
|-0-1-3-1-00~~~~~-|
|-0-1-3-1-00~~~~~-|
|-0-1-3-1-00~~~~~-|

Break x4      x1
|------------|-----------------|
|------------|-----------------|
|------------|-----------------|
|-3-1-00~~~~-|-00000000-3-1-00-|
|-3-1-00~~~~-|-00000000-3-1-00-|
|-3-1-00~~~~-|-00000000-3-1-00-|
PM              .......

Outro x4
|----------------------------|
|----------------------------|
|----------3\5---------------|
|-00000000-3\5-000000-3-1-00-|
|-00000000-1\3-000000-3-1-00-|
|-00000000-----000000-3-1-00-|
Tap to rate this tab
 
# A B C D E F G H I J K L M N O P Q R S T U V W X Y Z