Song name
# A B C D E F G H I J K L M N O P Q R S T U V W X Y Z

Kids Like Us - Wakin Up tab

Intro 
|----------------------|----|
|----------------------|----|
|----------------------|----|
|-555-888-11-00000--x4-|-8~-|
|-555-888-11-00000-----|-8~-|
|-555-888-11-00000-----|-8~-|

2-Step
|------------------------------------------------|---------|
|------------------------------------------------|---------|
|----------------------5/7-5/7-5/7-8888/75/7-----|---------|
|-3h5-3h5-3h5-6666-x2--x/x-x/x-x/x-xxxx/xx/x--x2-|-333-666-|
|-3h5-3h5-3h5-6666-----3/5-3/5-3/5-6666/53/5-----|-333-666-|
|-3h5-3h5-3h5-6666-------------------------------|-333-666-|

Fill x2
|---------------------------------------|
|---------------------------------------|
|---------------------------------------|
|-6666-0000h6666-0000h6666-0000-333-666-|
|-6666-0000h6666-0000h6666-0000-333-666-|
|-6666-0000h6666-0000h6666-0000-333-666-|

Breakdown
|------------------------------------------------------|
|------------------------------------------------------|
|---------------------5~-78----------------------------|
|-3~-560~-0000000--x2-x~-xx0~-0000000-33-56-0~-0000000-|
|-3~-560~-0000000-----3~-560~-0000000-33-56-0~-0000000-|
|-3~-560~-0000000----------0~-0000000-33-56-0~-0000000-|
          .......             .......          .......

                                                      2nd time end on
|----------------------------------------------------|--------|
|----------------------------------------------------|--------|
|----------------------------------------------------|--------|
|------------0~-000-000000-3----------0~-0000000--x2-|--------|
|-3----------0~-000-000000------------0~-0000000-----|-00-00X-|
|---h5h3h5-6-0~-000-000000---h5h3h5-6-0~-0000000-----|-00-00X-|
                ... ......               .......       .. ..  
Tap to rate this tab
# A B C D E F G H I J K L M N O P Q R S T U V W X Y Z