Song name
# A B C D E F G H I J K L M N O P Q R S T U V W X Y Z

Kiesza - Hideaway tab

Artist: Kiesza
  song: Hideaway 

Tuning: Normal

Chords used:

Chord   EADGBe (string)
Gm     (x,10,12,12,11,10)
Eb     (x,6,8,8,8,6)
F      (x,8,10,10,10,8)
Cm     (8,10,10,8,8,8)

(Intro) 
e|-----------------|-----------------|-----------------|-----------------|
B|-----------------|-----------------|-----------------|-----------------|
G|-----------------|-----------------|-----------------|-----------------|
D|-5---------------|-----------------|-3---------------|-----------------|
A|-----------------|-6---------------|-----------------|-3---------------|
E|-----------------|-----------------|-----------------|-----------------|(x4)
                                                 
Taking me higher than I’ve ever been before

I’m holding it back, just wanna shout out “give me more”

You’re just a hideaway, you’re just a feeling

You let my heart escape, beyond the meaning

Not even I can find a way to stop the storm

Oh, baby, it’s out of my control what’s going on

   Gm                Eb                F                 Cm
e|-10--------------|-6---------------|-8---------------|-8---------------|
B|-11--------------|-8---------------|-10--------------|-8---------------|
G|-12--------------|-8---------------|-10--------------|-8---------------|
D|-12--------------|-8---------------|-10--------------|-10--------------|
A|-10--------------|-6---------------|-8---------------|-10--------------|
E|-x---------------|-x---------------|-x---------------|-8---------------|(x4)

Gm                       Eb
But you’re just a chance I take to keep on dreaming

F                        Cm
You’re just another day that keeps me breathing

Gm                       Eb
Baby, I love the way that there’s nothing sure

F                        Cm
Baby, don’t stop me, hide away with me some more!

(bass)

Gm      Eb     F      Cm
ooh...  ahh... ahh... ooh... (x4)

Gm                       Eb
You’re sending a shiver up my spine, might overflow

F                        Cm
You’re bringing me closer to the edge of letting go

Gm                       Eb
You’re just a hideaway, you’re just a feeling

F                        Cm
You let my heart escape, beyond the meaning

Gm                       Eb
Pulling my head into the clouds. I’m floating up.

F                        Cm
When you get me going I can’t find a way to stop

Gm                       Eb
You’re just a chance I take to keep on dreaming

F                        Cm
You’re just another day that keeps me breathing

Gm      Eb     F      Cm
ooh...  ahh... ahh... ooh...  (x2)

Gm                       Eb
Baby, I love the way that there’s nothing sure

F                        Cm
Baby, don’t stop me, hide away with me some more...

Gm      Eb     F      Cm     
ooh...  ahh... ahh... ooh... 
(hide away with me some more...)


(Riff)
e|-----------------------------10---|-----------------------------10---|
B|-8-------8-------8---11--8--------|-8-------8-------8---11--8--------|
G|----------------------------------|----------------------------------|
D|----------------------------------|----------------------------------|
A|----------------------------------|----------------------------------|
E|----------------------------------|----------------------------------|

Gm                       Eb
Taking me higher than I’ve ever been before

F                        Cm
I’m holding it back, just wanna shout out “give me more”

Gm                       Eb
You’re just a hideaway, you’re just a feeling

F                        Cm
You let my heart escape, beyond the meaning

Gm                       Eb
Not even I can find a way to stop the storm

F                        Cm
Oh, baby, it’s out of my control what’s going on

Gm                       Eb
But you’re just a chance I take to keep on dreaming

F                        Cm
You’re just another day that keeps me breathing

Gm                       Eb
Ah ha, another day that keeps me dreaming

(bass)

(Riff)
e|-1-1--1-2-2--2-3-3--3-4-4--4-5-5--5-6-6--6--7-7--7-8-8-|
B|-1-1--1-2-2--2-3-3--3-4-4--4-5-5--5-6-6--6--7-7--7-8-8-|
G|-------------------------------------------------------|
D|-------------------------------------------------------|
A|-------------------------------------------------------|
E|-------------------------------------------------------|

Gm      Eb     F      Cm
ooh...  ahh... ahh... ooh...  (x2)

Gm                       Eb
Baby, I love the way that there’s nothing sure

F                        Cm
Baby, don’t stop me, hide away with me some more...

Gm      Eb     F      Cm     
ooh...  ahh... ahh... ooh... 
(hide away with me some more...)

----------------------------------------------------------

With a capo the chords can be played:

Capo: Fret 3

Chords used:

Chord   EADGBe (string)
Em     (022000)
C      (x32010)
D      (xx0232)
Am     (x02210)
Tap to rate this tab
# A B C D E F G H I J K L M N O P Q R S T U V W X Y Z