Guitaretab - guitar tabs
Song name
# A B C D E F G H I J K L M N O P Q R S T U V W X Y Z

Kiko Machine - Takeshi tab

TAKESHI
Kiko Machine

INTRO
Guitar 1
  F#         F          F#         F          F#         F          F#         F        
|-2--------|-1--------|-2--------|-1--------|-2--------|-1--------|-2--------|-1--------|
|-2--------|-1--------|-2--------|-1--------|-2--------|-1--------|-2--------|-1--------|
|-3--------|-2--------|-3--------|-2--------|-3--------|-2--------|-3--------|-2--------|
|-4--------|-3--------|-4--------|-3--------|-4--------|-3--------|-4--------|-3--------|
|-4--------|-3--------|-4--------|-3--------|-4--------|-3--------|-4--------|-3--------|
|-2--------|-1--------|-2--------|-1--------|-2--------|-1--------|-2--------|-1--------|

VERSE 1
Guitar 1
  E                     AM7                   E                     F#         F
|-0-------------------|-0-------------------|-0-------------------|-2--------|-1--------|
|-0-------------------|-2-------------------|-0-------------------|-2--------|-1--------|
|-1-------------------|-1-------------------|-1-------------------|-3--------|-2--------|
|-2-------------------|-2-------------------|-2-------------------|-4--------|-3--------|
|-2-------------------|-0-------------------|-2-------------------|-4--------|-3--------|
|-0-------------------|-x-------------------|-0-------------------|-2--------|-1--------|
  E                     AM7                   E                     F#         F
|-0-------------------|-0-------------------|-0-------------------|-2--------|-1--------|
|-0-------------------|-2-------------------|-0-------------------|-2--------|-1--------|
|-1-------------------|-1-------------------|-1-------------------|-3--------|-2--------|
|-2-------------------|-2-------------------|-2-------------------|-4--------|-3--------|
|-2-------------------|-0-------------------|-2-------------------|-4--------|-3--------|
|-0-------------------|-x-------------------|-0-------------------|-2--------|-1--------|

REFRAIN 1
Guitar 1
  B5                    A5                    B5                    A5
|-x-------------------|-x-------------------|-x-------------------|-0br-----------------|
|-x-------------------|-x-------------------|-x-------------------|-0br-----------------|
|-4-------------------|-2-------------------|-4-------------------|-2br-----------------|
|-4-------------------|-2-------------------|-4-------------------|-2br-----------------|
|-2-------------------|-0-------------------|-2-------------------|-0br-----------------|
|-x-------------------|-x-------------------|-x-------------------|-xbr-----------------|

CHORUS 1
Guitar 1
  E                     F#m                   E                     F#m
|-0-------------------|-2-------------------|-0-------------------|-2-------------------|
|-0-------------------|-2-------------------|-0-------------------|-2-------------------|
|-1-------------------|-2-------------------|-1-------------------|-2-------------------|
|-2-------------------|-4-------------------|-2-------------------|-4-------------------|
|-2-------------------|-4-------------------|-2-------------------|-4-------------------|
|-0-------------------|-2-------------------|-0-------------------|-2-------------------|
  E                     F#m                   E                     B5         A5
|-0-------------------|-2-------------------|-0-------------------|-2--------|-0--------|
|-0-------------------|-2-------------------|-0-------------------|-2--------|-0--------|
|-1-------------------|-2-------------------|-1-------------------|-4--------|-2--------|
|-2-------------------|-4-------------------|-2-------------------|-4--------|-2--------|
|-2-------------------|-4-------------------|-2-------------------|-2--------|-0--------|
|-0-------------------|-2-------------------|-0-------------------|-x--------|-x--------|
Guitar 2
  E                F#m          E                F#m
|-----------12----------------|-----------12----------------|
|--------10------9-10-9-------|------9-10---10-9-10-9----9--|
|-9-11------------------11-9--|-9-11------------------11----|
|-----------------------------|-----------------------------|
|-----------------------------|-----------------------------|
|-----------------------------|-----------------------------|
  E                  F#m                    B5   A5
|-----------12-12-14-16-14-12-|-12`--------------12`--14`\--|
|--------10-------------------|--------14`--12`-------------|
|-9-11------------------------|-----------------------------|
|-----------------------------|-----------------------------|
|-----------------------------|-----------------------------|
|-----------------------------|-----------------------------|
Guitar 3
|--------------------------------------------------------------------12-12-15-17-15-12-15-12-9-12-14-|
|-------------------------------------17-14-12-14-10-9-10-12-12-9-12---------------------------------|
|-------------------------12-14-12-14----------------------------------------------------------------|
|-14-11-9-11--14-11-9-11-----------------------------------------------------------------------------|
|----------------------------------------------------------------------------------------------------|
|----------------------------------------------------------------------------------------------------|


VERSE 2
Guitar 1
  E                     AM7                   E                     F#         F
|-0-------------------|-0-------------------|-0-------------------|-2--------|-1--------|
|-0-------------------|-2-------------------|-0-------------------|-2--------|-1--------|
|-1-------------------|-1-------------------|-1-------------------|-3--------|-2--------|
|-2-------------------|-2-------------------|-2-------------------|-4--------|-3--------|
|-2-------------------|-0-------------------|-2-------------------|-4--------|-3--------|
|-0-------------------|-x-------------------|-0-------------------|-2--------|-1--------|
  E                     AM7                   E                     F#         F
|-0-------------------|-0-------------------|-0-------------------|-2--------|-1--------|
|-0-------------------|-2-------------------|-0-------------------|-2--------|-1--------|
|-1-------------------|-1-------------------|-1-------------------|-3--------|-2--------|
|-2-------------------|-2-------------------|-2-------------------|-4--------|-3--------|
|-2-------------------|-0-------------------|-2-------------------|-4--------|-3--------|
|-0-------------------|-x-------------------|-0-------------------|-2--------|-1--------|

REFRAIN 2
Guitar 1
  B5                    A5                    B5                    A5
|-x-------------------|-x-------------------|-x-------------------|-0br-----------------|
|-x-------------------|-x-------------------|-x-------------------|-0br-----------------|
|-4-------------------|-2-------------------|-4-------------------|-2br-----------------|
|-4-------------------|-2-------------------|-4-------------------|-2br-----------------|
|-2-------------------|-0-------------------|-2-------------------|-0br-----------------|
|-x-------------------|-x-------------------|-x-------------------|-xbr-----------------|

CHORUS 1
Guitar 1
  E                     F#m                   E                     F#m
|-0-------------------|-2-------------------|-0-------------------|-2-------------------|
|-0-------------------|-2-------------------|-0-------------------|-2-------------------|
|-1-------------------|-2-------------------|-1-------------------|-2-------------------|
|-2-------------------|-4-------------------|-2-------------------|-4-------------------|
|-2-------------------|-4-------------------|-2-------------------|-4-------------------|
|-0-------------------|-2-------------------|-0-------------------|-2-------------------|
  E                     F#m                   E                     B5         A5
|-0-------------------|-2-------------------|-0-------------------|-2--------|-0--------|
|-0-------------------|-2-------------------|-0-------------------|-2--------|-0--------|
|-1-------------------|-2-------------------|-1-------------------|-4--------|-2--------|
|-2-------------------|-4-------------------|-2-------------------|-4--------|-2--------|
|-2-------------------|-4-------------------|-2-------------------|-2--------|-0--------|
|-0-------------------|-2-------------------|-0-------------------|-x--------|-x--------|
Guitar 2
  E                F#m          E                F#m
|-----------12----------------|-----------12----------------|
|--------10------9-10-9-------|------9-10---10-9-10-9----9--|
|-9-11------------------11-9--|-9-11------------------11----|
|-----------------------------|-----------------------------|
|-----------------------------|-----------------------------|
|-----------------------------|-----------------------------|
  E                  F#m                    B5   A5
|-----------12-12-14-16-14-12-|-12`--------------12`--14`\--|
|--------10-------------------|--------14`--12`-------------|
|-9-11------------------------|-----------------------------|
|-----------------------------|-----------------------------|
|-----------------------------|-----------------------------|
|-----------------------------|-----------------------------|
Guitar 3
|--------------------------------------------------------------------12-12-15-17-15-12-15-12-9-12-14-|
|-------------------------------------17-14-12-14-10-9-10-12-12-9-12---------------------------------|
|-------------------------12-14-12-14----------------------------------------------------------------|
|-14-11-9-11--14-11-9-11-----------------------------------------------------------------------------|
|----------------------------------------------------------------------------------------------------|
|----------------------------------------------------------------------------------------------------|
[ Tab from: http://www.guitaretab.com/k/kiko-machine/64287.html ]
INSTRUMENTAL
Guitar 1
  E                     F#m                   E                     F#         F
|-0-------------------|-2-------------------|-0-------------------|-2--------|-1--------|
|-0-------------------|-2-------------------|-0-------------------|-2--------|-1--------|
|-1-------------------|-2-------------------|-1-------------------|-3--------|-2--------|
|-2-------------------|-4-------------------|-2-------------------|-4--------|-3--------|
|-2-------------------|-4-------------------|-2-------------------|-4--------|-3--------|
|-0-------------------|-2-------------------|-0-------------------|-2--------|-1--------|
  E                     F#m                   E                     F#         F
|-0-------------------|-2-------------------|-0-------------------|-2--------|-1--------|
|-0-------------------|-2-------------------|-0-------------------|-2--------|-1--------|
|-1-------------------|-2-------------------|-1-------------------|-3--------|-2--------|
|-2-------------------|-4-------------------|-2-------------------|-4--------|-3--------|
|-2-------------------|-4-------------------|-2-------------------|-4--------|-3--------|
|-0-------------------|-2-------------------|-0-------------------|-2--------|-1--------|
Guitar 2
  E                        F#m                E                        F#-F
|-------------------------------------------|-------------------------------------------|
|-12-11--------12-11------------------------|-12-11--------12-11------------------------|
|-------13-----------13---------------------|-------13-----------13---------------------|
|----------11-----------11-8h9-8h9-/11------|----------11-----------11-8h9-8h9-/11------|
|-------------------------------------------|--------------------------------------9\---|
|-------------------------------------------|-------------------------------------------|
  E                        F#m                E                        F#-F
|-------------------------------------------|-------------------------------------------|
|-12-11--------12-11------------------------|-12-11--------12-11------------------------|
|-------13-----------13---------------------|-------13-----------13---------------------|
|----------11-----------11-8h9-8h9-/11------|----------11-----------11--11-13-13/16-16~-|
|-------------------------------------------|-------------------------------------------|
|-------------------------------------------|-------------------------------------------|

REFRAIN 2
Guitar 1
  B5                    A5                    B5                    A5
|-x-------------------|-x-------------------|-x-------------------|-0-------------------
|-x-------------------|-x-------------------|-x-------------------|-0-------------------
|-4-------------------|-2-------------------|-4-------------------|-2-------------------
|-4-------------------|-2-------------------|-4-------------------|-2-------------------
|-2-------------------|-0-------------------|-2-------------------|-0-------------------
|-x-------------------|-x-------------------|-x-------------------|-x-------------------
  A5
 -0-------------------|
 -0-------------------|
 -2-------------------|
 -2-------------------|
 -0-------------------|
 -x-------------------|

CHORUS 1
Guitar 1
  E                     F#m                   E                     F#m
|-0-------------------|-2-------------------|-0-------------------|-2-------------------|
|-0-------------------|-2-------------------|-0-------------------|-2-------------------|
|-1-------------------|-2-------------------|-1-------------------|-2-------------------|
|-2-------------------|-4-------------------|-2-------------------|-4-------------------|
|-2-------------------|-4-------------------|-2-------------------|-4-------------------|
|-0-------------------|-2-------------------|-0-------------------|-2-------------------|
  E                     F#m                   E                     B5         A5
|-0-------------------|-2-------------------|-0-------------------|-2--------|-0--------|
|-0-------------------|-2-------------------|-0-------------------|-2--------|-0--------|
|-1-------------------|-2-------------------|-1-------------------|-4--------|-2--------|
|-2-------------------|-4-------------------|-2-------------------|-4--------|-2--------|
|-2-------------------|-4-------------------|-2-------------------|-2--------|-0--------|
|-0-------------------|-2-------------------|-0-------------------|-x--------|-x--------|
Guitar 2
  E                F#m          E                F#m
|-----------12----------------|-----------12----------------|
|--------10------9-10-9-------|------9-10---10-9-10-9----9--|
|-9-11------------------11-9--|-9-11------------------11----|
|-----------------------------|-----------------------------|
|-----------------------------|-----------------------------|
|-----------------------------|-----------------------------|
  E                  F#m                    B5   A5
|-----------12-12-14-16-14-12-|-12`--------------12`--14`\--|
|--------10-------------------|--------14`--12`-------------|
|-9-11------------------------|-----------------------------|
|-----------------------------|-----------------------------|
|-----------------------------|-----------------------------|
|-----------------------------|-----------------------------|
Guitar 3
|--------------------------------------------------------------------12-12-15-17-15-12-15-12-9-12-14-|
|-------------------------------------17-14-12-14-10-9-10-12-12-9-12---------------------------------|
|-------------------------12-14-12-14----------------------------------------------------------------|
|-14-11-9-11--14-11-9-11-----------------------------------------------------------------------------|
|----------------------------------------------------------------------------------------------------|
|----------------------------------------------------------------------------------------------------|

FILL
Guitar 1
  A5
|-0---------------------------|
|-0---------------------------|
|-2---------------------------|
|-2---------------------------|
|-0---------------------------|
|-x---------------------------|
Guitar 2
|-2-2-4-4-5-5-7-7-5-5-4-4-2-2-|
|-2-2-4-4-5-5-7-7-5-5-4-4-2-2-|
|-4-4-6-6-7-7-9-9-7-7-6-6-4-4-|
|-4-4-6-6-7-7-9-9-7-7-6-6-4-4-|
|-2-2-4-4-5-5-7-7-5-5-4-4-2-2-|
|-x-x-x-x-x-x-x-x-x-x-x-x-x-x-|

CHORUS 2
Guitar 1
  E                     F#m                   E                     F#m
|-0-------------------|-2-------------------|-0-------------------|-2-------------------|
|-0-------------------|-2-------------------|-0-------------------|-2-------------------|
|-1-------------------|-2-------------------|-1-------------------|-2-------------------|
|-2-------------------|-4-------------------|-2-------------------|-4-------------------|
|-2-------------------|-4-------------------|-2-------------------|-4-------------------|
|-0-------------------|-2-------------------|-0-------------------|-2-------------------|
  E                     F#m                   E                     B5         A5
|-0-------------------|-2-------------------|-0-------------------|-2--------|-0--------|
|-0-------------------|-2-------------------|-0-------------------|-2--------|-0--------|
|-1-------------------|-2-------------------|-1-------------------|-4--------|-2--------|
|-2-------------------|-4-------------------|-2-------------------|-4--------|-2--------|
|-2-------------------|-4-------------------|-2-------------------|-2--------|-0--------|
|-0-------------------|-2-------------------|-0-------------------|-x--------|-x--------|
Guitar 2
  E                F#m          E                F#m
|-----------12----------------|-----------12----------------|
|--------10------9-10-9-------|------9-10---10-9-10-9----9--|
|-9-11------------------11-9--|-9-11------------------11----|
|-----------------------------|-----------------------------|
|-----------------------------|-----------------------------|
|-----------------------------|-----------------------------|
  E                  F#m                    B5   A5
|-----------12-12-14-16-14-12-|-12`--------------12`--14`\--|
|--------10-------------------|--------14`--12`-------------|
|-9-11------------------------|-----------------------------|
|-----------------------------|-----------------------------|
|-----------------------------|-----------------------------|
|-----------------------------|-----------------------------|
Guitar 3
|--------------------------------------------------------------------12-12-15-17-15-12-15-12-9-12-14-|
|-------------------------------------17-14-12-14-10-9-10-12-12-9-12---------------------------------|
|-------------------------12-14-12-14----------------------------------------------------------------|
|-14-11-9-11--14-11-9-11-----------------------------------------------------------------------------|
|----------------------------------------------------------------------------------------------------|
|----------------------------------------------------------------------------------------------------|

CODA
Guitar 1
  E                     F#m                   E                     F#         F
|-0-------------------|-2-------------------|-0-------------------|-2--------|-1--------|
|-0-------------------|-2-------------------|-0-------------------|-2--------|-1--------|
|-1-------------------|-2-------------------|-1-------------------|-3--------|-2--------|
|-2-------------------|-4-------------------|-2-------------------|-4--------|-3--------|
|-2-------------------|-4-------------------|-2-------------------|-4--------|-3--------|
|-0-------------------|-2-------------------|-0-------------------|-2--------|-1--------|
  E                     F#m                   E                     F#         F
|-0-------------------|-2-------------------|-0-------------------|-2--------|-1--------|
|-0-------------------|-2-------------------|-0-------------------|-2--------|-1--------|
|-1-------------------|-2-------------------|-1-------------------|-3--------|-2--------|
|-2-------------------|-4-------------------|-2-------------------|-4--------|-3--------|
|-2-------------------|-4-------------------|-2-------------------|-4--------|-3--------|
|-0-------------------|-2-------------------|-0-------------------|-2--------|-1--------|

Transcribed By Jeffrey Sancebuche
keijie_14@yahoo.com
Related for Takeshi tab