Song name
# A B C D E F G H I J K L M N O P Q R S T U V W X Y Z

Kiko Machine - Gabi tab

GABI
Kiko Machine

[Intro]
Guitar 1
  A                D                A                D
|-0--------------|-2--------------|-0--------------|-2--------------|
|-2--------------|-3--------------|-2--------------|-3--------------|
|-2--------------|-2--------------|-2--------------|-2--------------|
|-2--------------|-0--------------|-2--------------|-0--------------|
|-0--------------|----------------|-0--------------|----------------|
|----------------|----------------|----------------|----------------|
Guitar 2
  A                D                A                D
|---------9------|----------------|---------9------|----------------|
|-10---10--10-10-|--12-10---------|-10---10--10-10-|--12-10---------|
|----9-----------|----------------|----9-----------|----------------|
|----------------|----------------|----------------|----------------|
|----------------|----------------|----------------|----------------|
|----------------|----------------|----------------|----------------|
Guitar 3
  A                D                A                D
|----------------|----------------|----------------|----------------|
|-9h10p9h10p9h10p|9h10p0h10p9h10--|-9h10p9h10p9h10p|9h10p0h10p9h10--|
|----------------|----------------|----------------|----------------|
|----------------|----------------|----------------|----------------|
|----------------|----------------|----------------|----------------|
|----------------|----------------|----------------|----------------|

[Verse 1]
Guitar 1
  A                D                A                D
|-0--------------|-2--------------|-0--------------|-2--------------|
|-2--------------|-3--------------|-2--------------|-3--------------|
|-2--------------|-2--------------|-2--------------|-2--------------|
|-2--------------|-0--------------|-2--------------|-0--------------|
|-0--------------|----------------|-0--------------|----------------|
|----------------|----------------|----------------|----------------|
  A                D                C#m              D
|-0--------------|-2--------------|-4--------------|-2--------------|
|-2--------------|-3--------------|-5--------------|-3--------------|
|-2--------------|-2--------------|-6--------------|-2--------------|
|-2--------------|-0--------------|-6--------------|-0--------------|
|-0--------------|----------------|-4--------------|----------------|
|----------------|----------------|----------------|----------------|
Guitar 2
|---------9----------------------------9-------------------|
|-10---10---10---10-10--12-10--10---10---10---10-10--12-10-|
|----9---------9------------------9---------9--------------|
|----------------------------------------------------------|
|----------------------------------------------------------|
|----------------------------------------------------------|

|---------9----------------------------------------------9-------|
|-10---10---10---10-10--12-10--9----9----9-10-10-10---10---10-10-|
|----9---------9----------------------10------------9------------|
|--------------------------------11------------------------------|
|----------------------------------------------------------------|
|----------------------------------------------------------------|

[Verse 2]
  A                D                A                D
|-0--------------|-2--------------|-0--------------|-2--------------|
|-2--------------|-3--------------|-2--------------|-3--------------|
|-2--------------|-2--------------|-2--------------|-2--------------|
|-2--------------|-0--------------|-2--------------|-0--------------|
|-0--------------|----------------|-0--------------|----------------|
|----------------|----------------|----------------|----------------|
  A                D                C#m              D                C#m              D                E
|-0--------------|-2--------------|-4--------------|-2--------------|-4--------------|-2--------------|-0--------------|
|-2--------------|-3--------------|-5--------------|-3--------------|-5--------------|-3--------------|-0--------------|
|-2--------------|-2--------------|-6--------------|-2--------------|-6--------------|-2--------------|-1--------------|
|-2--------------|-0--------------|-6--------------|-0--------------|-6--------------|-0--------------|-2--------------|
|-0--------------|----------------|-4--------------|----------------|-4--------------|----------------|-2--------------|
|----------------|----------------|----------------|----------------|----------------|----------------|-0--------------|
Guitar 2
|---------9----------------------------9-------------------|
|-10---10---10---10-10--12-10--10---10---10---10-10--12-10-|
|----9---------9------------------9---------9--------------|
|----------------------------------------------------------|
|----------------------------------------------------------|
|----------------------------------------------------------|

|---------9----------------------------------------------9-----------|
|-10---10---10---10-10--12-10--9----9----9-10-10-10---10---10-10-12~-|
|----9---------9----------------------10------------9----------------|
|--------------------------------11----------------------------------|
|--------------------------------------------------------------------|
|--------------------------------------------------------------------|

[Chorus]
Guitar 1
  A                D                A                D
|-0--------------|-2--------------|-0--------------|-2--------------|
|-2--------------|-3--------------|-2--------------|-3--------------|
|-2--------------|-2--------------|-2--------------|-2--------------|
|-2--------------|-0--------------|-2--------------|-0--------------|
|-0--------------|----------------|-0--------------|----------------|
|----------------|----------------|----------------|----------------|
  A                D                C#m              D                C#m              D
|-0--------------|-2--------------|-4--------------|-2--------------|-4--------------|-2--------------|
|-2--------------|-3--------------|-5--------------|-3--------------|-5--------------|-3--------------|
|-2--------------|-2--------------|-6--------------|-2--------------|-6--------------|-2--------------|
|-2--------------|-0--------------|-6--------------|-0--------------|-6--------------|-0--------------|
|-0--------------|----------------|-4--------------|----------------|-4--------------|----------------|
|----------------|----------------|----------------|----------------|----------------|----------------|
Guitar 2
|------------------------------------------------------------|
|-12\10--10-10-10-10--10-10/19-17~---12-14-15-14-12-14-12-10-|
|------------------------------------------------------------|
|------------------------------------------------------------|
|------------------------------------------------------------|
|------------------------------------------------------------|

|------------------------------------------------------------|
|-12\10--10-10-10-10--10-10/19-17~---12-14-15-14-12-14-12-10-|
|------------------------------------------------------------|
|------------------------------------------------------------|
|------------------------------------------------------------|
|------------------------------------------------------------|

|-9-9-9-9-9-9-10-10-10-10-10-10-9-9-9-9-9-9-10-10-10-10-10-10-------|
|-------------------------------------------------------------12-10-|
|-------------------------------------------------------------------|
|-------------------------------------------------------------------|
|-------------------------------------------------------------------|
|-------------------------------------------------------------------|

[Fill]
Guitar 1
  A                D                A                D
|-0--------------|-2--------------|-0--------------|-2--------------|
|-2--------------|-3--------------|-2--------------|-3--------------|
|-2--------------|-2--------------|-2--------------|-2--------------|
|-2--------------|-0--------------|-2--------------|-0--------------|
|-0--------------|----------------|-0--------------|----------------|
|----------------|----------------|----------------|----------------|
Guitar 2
  A                D                A                D
|---------9------|----------------|---------9------|----------------|
|-10---10--10-10-|--12-10---------|-10---10--10-10-|--12-10---------|
|----9-----------|----------------|----9-----------|----------------|
|----------------|----------------|----------------|----------------|
|----------------|----------------|----------------|----------------|
|----------------|----------------|----------------|----------------|
Guitar 3
  A                D                A                D
|----------------|----------------|----------------|----------------|
|-9h10p9h10p9h10p|9h10p0h10p9h10--|-9h10p9h10p9h10p|9h10p0h10p9h10--|
|----------------|----------------|----------------|----------------|
|----------------|----------------|----------------|----------------|
|----------------|----------------|----------------|----------------|
|----------------|----------------|----------------|----------------|

[Verse 3]
Guitar 1
  A                D                A                D
|-0--------------|-2--------------|-0--------------|-2--------------|
|-2--------------|-3--------------|-2--------------|-3--------------|
|-2--------------|-2--------------|-2--------------|-2--------------|
|-2--------------|-0--------------|-2--------------|-0--------------|
|-0--------------|----------------|-0--------------|----------------|
|----------------|----------------|----------------|----------------|
  A                D                C#m              D                C#m              D                E
|-0--------------|-2--------------|-4--------------|-2--------------|-4--------------|-2--------------|-0--------------|
|-2--------------|-3--------------|-5--------------|-3--------------|-5--------------|-3--------------|-0--------------|
|-2--------------|-2--------------|-6--------------|-2--------------|-6--------------|-2--------------|-1--------------|
|-2--------------|-0--------------|-6--------------|-0--------------|-6--------------|-0--------------|-2--------------|
|-0--------------|----------------|-4--------------|----------------|-4--------------|----------------|-2--------------|
|----------------|----------------|----------------|----------------|----------------|----------------|-0--------------|
Guitar 2
|---------9----------------------------9-------------------|
|-10---10---10---10-10--12-10--10---10---10---10-10--12-10-|
|----9---------9------------------9---------9--------------|
|----------------------------------------------------------|
|----------------------------------------------------------|
|----------------------------------------------------------|

|---------9----------------------------------------------9-----------|
|-10---10---10---10-10--12-10--9----9----9-10-10-10---10---10-10-12~-|
|----9---------9----------------------10------------9----------------|
|--------------------------------11----------------------------------|
|--------------------------------------------------------------------|
|--------------------------------------------------------------------|

[Chorus]
Guitar 1
  A                D                A                D
|-0--------------|-2--------------|-0--------------|-2--------------|
|-2--------------|-3--------------|-2--------------|-3--------------|
|-2--------------|-2--------------|-2--------------|-2--------------|
|-2--------------|-0--------------|-2--------------|-0--------------|
|-0--------------|----------------|-0--------------|----------------|
|----------------|----------------|----------------|----------------|
  A                D                C#m              D                C#m              D
|-0--------------|-2--------------|-4--------------|-2--------------|-4--------------|-2--------------|
|-2--------------|-3--------------|-5--------------|-3--------------|-5--------------|-3--------------|
|-2--------------|-2--------------|-6--------------|-2--------------|-6--------------|-2--------------|
|-2--------------|-0--------------|-6--------------|-0--------------|-6--------------|-0--------------|
|-0--------------|----------------|-4--------------|----------------|-4--------------|----------------|
|----------------|----------------|----------------|----------------|----------------|----------------|
Guitar 2
|------------------------------------------------------------|
|-12\10--10-10-10-10--10-10/19-17~---12-14-15-14-12-14-12-10-|
|------------------------------------------------------------|
|------------------------------------------------------------|
|------------------------------------------------------------|
|------------------------------------------------------------|

|------------------------------------------------------------|
|-12\10--10-10-10-10--10-10/19-17~---12-14-15-14-12-14-12-10-|
|------------------------------------------------------------|
|------------------------------------------------------------|
|------------------------------------------------------------|
|------------------------------------------------------------|

|-9-9-9-9-9-9-10-10-10-10-10-10-9-9-9-9-9-9-10-10-10-10-10-10-------|
|-------------------------------------------------------------12-10-|
|-------------------------------------------------------------------|
|-------------------------------------------------------------------|
|-------------------------------------------------------------------|
|-------------------------------------------------------------------|

[Instrumental]
Guitar 2
  A                D                A                D
|-0--------------|-2--------------|-0--------------|-2--------------|
|-2--------------|-3--------------|-2--------------|-3--------------|
|-2--------------|-2--------------|-2--------------|-2--------------|
|-2--------------|-0--------------|-2--------------|-0--------------|
|-0--------------|----------------|-0--------------|----------------|
|----------------|----------------|----------------|----------------|
  A                D                C#m              D                C#m              D
|-0--------------|-2--------------|-4--------------|-2--------------|-4--------------|-2--------------|
|-2--------------|-3--------------|-5--------------|-3--------------|-5--------------|-3--------------|
|-2--------------|-2--------------|-6--------------|-2--------------|-6--------------|-2--------------|
|-2--------------|-0--------------|-6--------------|-0--------------|-6--------------|-0--------------|
|-0--------------|----------------|-4--------------|----------------|-4--------------|----------------|
|----------------|----------------|----------------|----------------|----------------|----------------|
Guitar 2
|------------9b-9b-10b-9b-10b-10b-------------9b-9b-10b-9b-10b-10b-
|-10b----10b----------------------10b----10b-----------------------
|-----9b------------------------------9b---------------------------
|------------------------------------------------------------------
|------------------------------------------------------------------
|------------------------------------------------------------------

|-9-9-9-9-9-9-10-10-10-10-10-10-9-9-9-9-9-9-10-10-10-10-10-10-------|
|-------------------------------------------------------------12-10-|
|-------------------------------------------------------------------|
|-------------------------------------------------------------------|
|-------------------------------------------------------------------|
|-------------------------------------------------------------------|

[Chorus]
Guitar 1
  A                D                A                D
|-0--------------|-2--------------|-0--------------|-2--------------|
|-2--------------|-3--------------|-2--------------|-3--------------|
|-2--------------|-2--------------|-2--------------|-2--------------|
|-2--------------|-0--------------|-2--------------|-0--------------|
|-0--------------|----------------|-0--------------|----------------|
|----------------|----------------|----------------|----------------|
  A                D                C#m              D                C#m              D
|-0--------------|-2--------------|-4--------------|-2--------------|-4--------------|-2--------------|
|-2--------------|-3--------------|-5--------------|-3--------------|-5--------------|-3--------------|
|-2--------------|-2--------------|-6--------------|-2--------------|-6--------------|-2--------------|
|-2--------------|-0--------------|-6--------------|-0--------------|-6--------------|-0--------------|
|-0--------------|----------------|-4--------------|----------------|-4--------------|----------------|
|----------------|----------------|----------------|----------------|----------------|----------------|
Guitar 2
|------------------------------------------------------------|
|------------------------------------------------------------|
|------------------------------------------------------------|
|------------------------------------------------------------|
|------------------------------------------------------------|
|------------------------------------------------------------|

|------------------------------------------------------------|
|------------------------------------------------------------|
|------------------------------------------------------------|
|------------------------------------------------------------|
|------------------------------------------------------------|
|------------------------------------------------------------|

|-------------------------------------------------------------------|
|-------------------------------------------------------------------|
|-------------------------------------------------------------------|
|-------------------------------------------------------------------|
|-------------------------------------------------------------------|
|-------------------------------------------------------------------|

[Chorus]
Guitar 1
  A                D                A                D
|-0--------------|-2--------------|-0--------------|-2--------------|
|-2--------------|-3--------------|-2--------------|-3--------------|
|-2--------------|-2--------------|-2--------------|-2--------------|
|-2--------------|-0--------------|-2--------------|-0--------------|
|-0--------------|----------------|-0--------------|----------------|
|----------------|----------------|----------------|----------------|
  A                D                C#m              D                C#m              D
|-0--------------|-2--------------|-4--------------|-2--------------|-4--------------|-2--------------|
|-2--------------|-3--------------|-5--------------|-3--------------|-5--------------|-3--------------|
|-2--------------|-2--------------|-6--------------|-2--------------|-6--------------|-2--------------|
|-2--------------|-0--------------|-6--------------|-0--------------|-6--------------|-0--------------|
|-0--------------|----------------|-4--------------|----------------|-4--------------|----------------|
|----------------|----------------|----------------|----------------|----------------|----------------|
Guitar 2
|------------------------------------------------------------|
|-12\10--10-10-10-10--10-10/19-17~---12-14-15-14-12-14-12-10-|
|------------------------------------------------------------|
|------------------------------------------------------------|
|------------------------------------------------------------|
|------------------------------------------------------------|

|------------------------------------------------------------|
|-12\10--10-10-10-10--10-10/19-17~---12-14-15-14-12-14-12-10-|
|------------------------------------------------------------|
|------------------------------------------------------------|
|------------------------------------------------------------|
|------------------------------------------------------------|

|-9-9-9-9-9-9-10-10-10-10-10-10-9-9-9-9-9-9-10-10-10-10-10-10-------|
|-------------------------------------------------------------12-10-|
|-------------------------------------------------------------------|
|-------------------------------------------------------------------|
|-------------------------------------------------------------------|
|-------------------------------------------------------------------|

[Chorus]
Guitar 1
  A                D                A                D
|-0--------------|-2--------------|-0--------------|-2--------------|
|-2--------------|-3--------------|-2--------------|-3--------------|
|-2--------------|-2--------------|-2--------------|-2--------------|
|-2--------------|-0--------------|-2--------------|-0--------------|
|-0--------------|----------------|-0--------------|----------------|
|----------------|----------------|----------------|----------------|
  A                D                C#m              D                C#m              D
|-0--------------|-2--------------|-4--------------|-2--------------|-4--------------|-2--------------|
|-2--------------|-3--------------|-5--------------|-3--------------|-5--------------|-3--------------|
|-2--------------|-2--------------|-6--------------|-2--------------|-6--------------|-2--------------|
|-2--------------|-0--------------|-6--------------|-0--------------|-6--------------|-0--------------|
|-0--------------|----------------|-4--------------|----------------|-4--------------|----------------|
|----------------|----------------|----------------|----------------|----------------|----------------|
Guitar 2
|------------------------------------------------------------|
|-12\10--10-10-10-10--10-10/19-17~---12-14-15-14-12-14-12-10-|
|------------------------------------------------------------|
|------------------------------------------------------------|
|------------------------------------------------------------|
|------------------------------------------------------------|

|------------------------------------------------------------|
|-12\10--10-10-10-10--10-10/19-17~---12-14-15-14-12-14-12-10-|
|------------------------------------------------------------|
|------------------------------------------------------------|
|------------------------------------------------------------|
|------------------------------------------------------------|

|-9-9-9-9-9-9-10-10-10-10-10-10-9-9-9-9-9-9-10-10-10-10-10-10-------|
|-------------------------------------------------------------12-10-|
|-------------------------------------------------------------------|
|-------------------------------------------------------------------|
|-------------------------------------------------------------------|
|-------------------------------------------------------------------|

[Coda]
Guitar 1
  A                D                A                D
|-0--------------|-2--------------|-0--------------|-2--------------|
|-2--------------|-3--------------|-2--------------|-3--------------|
|-2--------------|-2--------------|-2--------------|-2--------------|
|-2--------------|-0--------------|-2--------------|-0--------------|
|-0--------------|----------------|-0--------------|----------------|
|----------------|----------------|----------------|----------------|
  A                D                A                D
|-0--------------|-2--------------|-0--------------|-2--------------|
|-2--------------|-3--------------|-2--------------|-3--------------|
|-2--------------|-2--------------|-2--------------|-2--------------|
|-2--------------|-0--------------|-2--------------|-0--------------|
|-0--------------|----------------|-0--------------|----------------|
|----------------|----------------|----------------|----------------|
Guitar 2
  A                D                A                D
|---------9------|----------------|---------9------|----------------|
|-10---10--10-10-|--12-10---------|-10---10--10-10-|--12-10---------|
|----9-----------|----------------|----9-----------|----------------|
|----------------|----------------|----------------|----------------|
|----------------|----------------|----------------|----------------|
|----------------|----------------|----------------|----------------|
  A                D                A                D
|---------9------|----------------|---------9------|----------------|
|-10---10--10-10-|--12-10---------|-10---10--10-10-|--12-10---------|
|----9-----------|----------------|----9-----------|----------------|
|----------------|----------------|----------------|----------------|
|----------------|----------------|----------------|----------------|
|----------------|----------------|----------------|----------------|
Guitar 3
  A                D                A                D
|----------------|----------------|----------------|----------------|
|-9h10p9h10p9h10p|9h10p0h10p9h10--|-9h10p9h10p9h10p|9h10p0h10p9h10--|
|----------------|----------------|----------------|----------------|
|----------------|----------------|----------------|----------------|
|----------------|----------------|----------------|----------------|
|----------------|----------------|----------------|----------------|
  A                D                A                D
|----------------|----------------|----------------|----------------|
|-9h10p9h10p9h10p|9h10p0h10p9h10--|-9h10p9h10p9h10p|9h10p0h10p9h10--|
|----------------|----------------|----------------|----------------|
|----------------|----------------|----------------|----------------|
|----------------|----------------|----------------|----------------|
|----------------|----------------|----------------|----------------|

Transcribed by Jeffrey Sancebuche
keijie_14@yahoo.com
Tap to rate this tab
# A B C D E F G H I J K L M N O P Q R S T U V W X Y Z