Guitaretab - guitar tabs
Song name
# A B C D E F G H I J K L M N O P Q R S T U V W X Y Z

Kiko Machine - Michikot tab

Song:Michikot
Album:Kiko Machine
Artist:Kiko Machine
Date Tabbed:July,2006
Guitar Tabber:Ryan Manongdo,16,m,Montalban Rizal
              forget_013@yahoo.com.ph(Friendster&YM)
              09229015724(Sun Cell)
              
Gtr.Legends:
x  - DEAD STRING
.  - PALM MUTING
~  - LET IT RING
/  - SLIDE
p  - PULL-OFF
() - SUSTAINED NOTE

Gtr.Effects:Distortion and Clean Delay
Gtr.Tuning:Standard(Normal)

Intro:              
Gtr.1
e|---------------------------------|
B|---------------------------------|
G|-7777/9999-9/11111111------------| 4x
D|-xxxx-xxxx-x--x-x-x-x-55555555---|
A|-5555/7777-7/-9-9-9-9-55555555---|
E|----------------------33333333---|

Gtr.2
e|----------------------------|
B|----------------------------|
G|-777-6----777-6-------------| 4x
D|-xxx-x-7--xxx-x-7--555555---|
A|-555-4-x--555-4-x--555555---|
E|-------5--------5--333333---|

Verse:
Ang lungkot natin parang otto...
Gtr.1:
e|----------------------|
B|----------------------|
G|-777777777------------| 4x
D|-777777777-55555555---|
A|-555555555-55555555---|
E|-----------33333333---|

Gtr.2:Use gtr.effect delay...
e|---------------------|
B|-3-2-----------------|
G|-----2~--------------| 4x 
D|----------2-4-2------|
A|----------------5~---|
E|---------------------|

Pre-Chorus:
May tinago itong biglang-biglang nag-laho.....
e|------------------------------|
B|------------------------------|
G|------------------------------|
D|-4444-5555-4444-5555-777777---|
A|-4444-5555-4444-5555-777777---|
E|-2222-3333-2222-3333-555555---|
    ...  ...  ...  

Chorus:
Parang di na kita maabutan...
Gtr.1:
e|---------------------|
B|---------------------|
G|-7777----------------| 3x
D|-7777-7777-5555555---|
A|-5555-7777-5555555---|
E|------5555-3333333---|

Gtr.2:
e|---------------------------------|
B|---------------------------------|
G|-7777/9999-9/11111111------------| 3x 
D|-xxxx-xxxx-x--x-x-x-x-55555555---|
A|-5555/7777-7/-9-9-9-9-55555555---|
E|----------------------33333333---|

at dahan-dahan...
e|----------------------|
B|----------------------|
G|----------------------|
D|-44444-55555-777777---|
A|-44444-55555-777777---|
E|-22222-33333-555555---|

Repeat Intro 2x:

Repeat Verse and Pre-Chorus:

Repeat Chorus:

Bridge prt.1(Gtr.Solo):
Just play the intro prt.1(Only gtr.1)
Listen to the song well for timing...
[ Tab from: http://www.guitaretab.com/k/kiko-machine/66219.html ]
Bridge prt.2(Gtr.Solo):1st lick repeat 2x
Gtr.1:
1st lick
e|---------------------------------------------------|
B|-15-------15-------15-------15-------15----15------|
G|----14-14----14-14----14-14----14-14----14----14---|  
D|---------------------------------------------------|
A|---------------------------------------------------|
E|---------------------------------------------------|

e|-------------------------------------------------------|
B|-------------------------------------------------------|
G|-12-11-11--12-11-11--12-11-11--12-11-11--12-11-12-11---| 
D|-------------------------------------------------------| 
A|-------------------------------------------------------|
E|-------------------------------------------------------|

2nd lick(Last part)
e|--------------------------------------------------(17)---|
B|-15-------15-------15-------15-------15----15------------|
G|----14-14----14-14----14-14----14-14----14----14---------| 
D|---------------------------------------------------------|
A|---------------------------------------------------------|
E|---------------------------------------------------------|

Gtr.2:
e|---------------------------------------------------------------|
B|---------------------------------------------------------------|
G|---------------------------------------------------------------|
D|-4-5-7~--7p5~--4-5-7~-14-12~--4-5-7~--7-5-----4-5-7~--14-12~---|
A|------------------------------------------5~-------------------|
E|---------------------------------------------------------------|

Parang di na kita maabutan...
D,A,G(Basic Chords)

Parang di na kita masakyan...
e|---------------------|
B|---------------------|
G|-7777----------------|
D|-7777-7777-5555555---|
A|-5555-7777-5555555---|
E|------5555-3333333---|

Repeat Chorus:

Repeat Intro 4x:

Last Chords:
Gtr.1:     Gtr.2:
e|-----    ------------|
B|-----    ------------|
G|-7~--    -777-6------|
D|-7~--    -------7~---|
A|-5~--    ------------|
E|-----    ------------|

End...


  I would like to greet first offcourse my ONLY ONLY ONE,then;my relatives,my
friends on Montalban(Brgy.Balite Espiritu Subd.),My traitor friends in our school
NSDAPS San Mateo Rizal,Cocklosas,Cocklisay.Cocktabijan,Cockpistrano,Cockyatano,Cockruz,
Franciscock,Picock,Fuckmittan,Redick,Simbulbulan,Frondosuso,Bayagin,Titesta,Aldick,and many
moore,our band club(COMBO-RATS),Project X,To all my txt mates and other companie,Red Porn Records,
My friends in YM and Friendster,and most of all,hi to God..

Padre Garrote:          Extra:

Dino Testa:Vocals       Andrei Frondoso:Xylophone,Triangles,Flute and Tamborine           
Edy Capistrano:Gtr.1    Mike Alvez:Sub-Guitar                               
Jiro Uezono:Gtr.2      
Ryan Manongdo:Bass       
Aeroll Cayetano:Drums   
Related for Michikot tab