Song name
# A B C D E F G H I J K L M N O P Q R S T U V W X Y Z

Kiko Machine - Val Sotto tab

					VAL SOTTO
				      kiko machine
INTRO:
BASS UN DIBA?

G---------------------------- G---------------------|
D---------------------------- D---------------------|
A-----------0h1/2--/5555-4444 A----------0h1/222----|5  TYMINGAN NYO NA LANG
E-0-5---0-2------------------ E-0-5---0-2-----------|
CHORUS
Sa bigote pa lang pamatay,
Panalo’ng idol ko….machong macho.
Kapatid (kapatid)
Siya ni tito (siya ni tito)
At ni Vic (at ni Vic)
Ngunit siya ang pinaka gwapo. Idol ko wohooo si Val Sotto!! [pasok riff2]

Riff 2
E-----------|
B-----------|
G-----------|
D-777--333--| 4x
A-777--333--|
E-555--111--|

Verse:
Riff 3 (tymingan nyo na lang)
E----                  E----|
B----                  B----|
G----                  G----|
D-777 *MANY TIMES THEN D-555
A-777                  A-555
E-555                  E-333

Val val val val val Sotto ang pangalan niya,
Sa kanya walang kokontra. Sa “Aguila” siya ang bida
Sikat na sikat na soap opera dati, pamatay na bigote na may appeal sa babae
Machong macho guwapong gwapo idol ko si Val Sotto!

CHORUS Riff:
E------------------------|
B------------------------|
G-----------4444-777/666-|
D-7777-4444-4444-777/666-| 2x
A-7777-4444-2222-555/444-|
E-5555-2222--------------|
Sa bigote pa lang pamatay,
Panalo’ng idol ko….machong macho.
Kapatid (kapatid)
Siya ni tito (siya ni tito)
At ni Vic (at ni Vic)
Ngunit siya ang pinaka gwapo. Idol ko wohooo si Val Sotto!!

Bridge Riff[para lang sa chorus i-pluck niyo lang]
E--------------------------------------------------------------------|
B---------------------------------------4-----4----------7-----7-----|
G-----7-----7----------4-----4--------4---4-4---4------7---7-7---7---|
D---7---7-7---7------4---4-4---4----2-------------2--5------------5--| 2x
A-5-------------5--2-------------2-----------------------------------|
E--------------------------------------------------------------------|
(narration) Val Sotto, ikaw ang bida sa hapon at ikaw ang bida sa gabi. Ikaw ang modelo 
isang tunay na lalaking Filipino…..maginoo, Val Sotto.

CHORUS RIFF:
E------------------------|
B------------------------|
G-----------4444-777/666-|
D-7777-4444-4444-777/666-| 2x
A-7777-4444-2222-555/444-|
E-5555-2222--------------|
Sa bigote pa lang pamatay,
Panalo’ng idol ko….machong macho.
Kapatid (kapatid)
Siya ni tito (siya ni tito)
At ni Vic (at ni Vic)
Ngunit siya ang pinaka gwapo. Idol ko wohooo si Val Sotto!!

Riff 2
E-----------|
B-----------|
G-----------|
D-777--333--| 4x
A-777--333--|
E-555--111--|

END!!!!

Kung my tab kau ng Boldstar by kiko post niyo nman dito..
PAKI-RATE NA LNG PLS...
FRIENDSTER:jof328@yahoo.com
Tap to rate this tab
# A B C D E F G H I J K L M N O P Q R S T U V W X Y Z