Guitaretab - guitar tabs
Song name
# A B C D E F G H I J K L M N O P Q R S T U V W X Y Z

Kiko Machine - Boldstar tab

Song:Bold Star
Album:Kiko Machine
Artist:Kiko Machine
Date Tabbed:July,2006
Guitar Tabber:Ryan Manongdo,16,m,Montalban Rizal
              forget_013@yahoo.com.ph(Friendster&YM)
              09229015724(Sun Cell)

Gtr.Legends:
/ - SLIDE
h - HAMMER-ON
x - DEAD STRING
. - PALM MUTING
~ - DEAD STRING

Gtr.Tuning:Standard(Normal)
 
Intro:
e|--------------------------------|
B|--------------------------------|
G|--------------------------------| 4x
D|-55-555/88/1010--55-555x66-55---|
A|-33-333/66/-8-8--33-333x66-55---|
E|-----------------------x44-33---|

Verse 1:
Matagal na kong nang-liligaw sayo...
e|-------------------------------------|
B|-------------------------------------|
G|-------------------------------------| 2x
D|-55555555----------------------------|
A|-33333333-5555555-7777777-33333333---|
E|----------3333333-5555555-11111111---|
    .......  ......  ......  .......

Pre-Chorus:
Hayaan mo,papaderma ako...
e|------------------------------------------------|
B|------------------------------------------------|
G|------------------------------------------------|
D|-7-7-7-7-7-7-5-5-5-5-5-5-5555555-3333/5555555---|
A|-7-7-7-7-7-7-5-5-5-5-5-5-3333333-3333/5555555---|
E|-5-5-5-5-5-5-3-3-3-3-3-3---------1111/3333333---|
   . . . . . . . . . . . .                    .  

Chorus:
Pag naging boldstar ako....
e|--------------------------------------------|
B|--------------------------------------------|
G|--------------------------------------------| 2x
D|-55555-555555-777777777-3333333-6666-8888---|
A|-33333-555555-777777777-3333333-6666-8888---|
E|-------333333-555555555-1111111-4444-6666---|

Repeat Intro prt.1 2x:
Bold Star...

Verse 2:
Gtr.1:Play Verse 1
Gtr.2:
e|-------------------|
B|-------------------|
G|-555555555555555---|
D|-xxxxxxxxxxxxxxx---|
A|-333333333333333---|
E|-------------------|

Repeat Pre-Chorus and Chorus::

Gtr.1:Repeat Intro 4x Then last Chord C(Let it Ring)
Gtr.2:
e|-------------------|
B|-------------------|
G|-555555555555555---|
D|-xxxxxxxxxxxxxxx---|
A|-333333333333333---|
E|-------------------|
[ Tab from: http://www.guitaretab.com/k/kiko-machine/71737.html ]
Bridge(Gtr.Solo)
e|---8--10-10h11-10--8h9--------8-10-10h11-10-8-10-10h11-10-8~---|
B|-8---------------------9~~--8----------------------------------|
G|---------------------------------------------------------------|
D|---------------------------------------------------------------|
A|---------------------------------------------------------------|
E|---------------------------------------------------------------|

e|---8-10-10h11-10-8-10-10h11-10-8~--11-10-8-10-10h11-10-10h11-8~~---|
B|-8-----------------------------------------------------------------|
G|-------------------------------------------------------------------|
D|-------------------------------------------------------------------|
A|-------------------------------------------------------------------|
E|-------------------------------------------------------------------|

After bridge:
e|--------------------------------------|
B|--------------------------------------|
G|--------------------------------------|
D|-777777-555555-5555555-3333/5555555---|
A|-777777-555555-3333333-3333/5555555---|
E|-555555-333333---------1111/3333333---|
    .....  .....                    .

Repeat Chorus 4x:

Ang malaki kong..
e|---------------------------------|
B|---------------------------------|
G|---------------------------------|
D|-666666-888888---666666-888888---|
A|-666666-888888---666666-888888---|
E|-444444-666666---444444-666666---|

Outro:
Repeat Intro 4x:
Boldstar.....

End....

  I would like to greet first offcourse my ONLY ONLY ONE,then;my relatives,my
friends on Montalban(Brgy.Balite Espiritu Subd.),My traitor friends in our school
NSDAPS San Mateo Rizal,Cocklosas,Cocklisay.Cocktabijan,Cockpistrano,Cockyatano,Cockruz,
Franciscock,Picock,Fuckmittan,Redick,Simbulbulan,Frondosuso,Bayagin,Titesta,Aldick,and many
moore,our band club(COMBO-RATS),Project X,To all my txt mates and other companie,Red Porn Records,
My friends in YM and Friendster,and most of all,hi to God..

Padre Garrote:          Extra:

Dino Testa:Vocals       Andrei Frondoso:Xylophone,Triangles,Flute and Tamborine           
Edy Capistrano:Gtr.1    Mike Alvez:Sub-Guitar                               
Jiro Uezono:Gtr.2      
Ryan Manongdo:Bass       
Aeroll Cayetano:Drums   
Related for Boldstar tab