Guitaretab - guitar tabs
Song name
# A B C D E F G H I J K L M N O P Q R S T U V W X Y Z

Kiko Machine - Barkada Trip tab

Title: Barkada Trip
Arist: Kiko Machine
CHords by: Mark Jesson Galera/18/m/San Juan La Union
           Bsn-1

Tuning: Standard           

For any comments and suggestion:

Text me: 09198408399
Friendster Acoount: magnificoboy_00@yahoo.com or boybassista@yahoo.com


Chords Pattern:
   A  E   D  C#m  F#m
e---------2---4----2-------|
b--2------3---5----2-------|
g--2---1--2---6----2-------|
D--2---2------6----4-------|
A------2------4----4-------|
e------------------2-------|

Verse 1:

 A    E    D
Umaga na pala
    A            E            D         C#m
Mero’n ka bang alam na pwede nating gawin
 A     E      D
Malay ko sa ‘yo
    A          E        D         C#m
Basta kami ngayo’y kumakain na dito

Chords Pattern:
   A  E   D  C#m  F#m
e---------2---4----2-------|
b--2------3---5----2-------|
g--2---1--2---6----2-------|
D--2---2------6----4-------|
A------2------4----4-------|
e------------------2-------|
[ Tab from: http://www.guitaretab.com/k/kiko-machine/73370.html ]
   F#m      A     D
Makisama naman kayo
    F#m        A               D        E
Nag-iisip na nga ng trip para sa ‘tin ito
   F#m      A        D
Pagpasensyahan na kami
    F#m       A        D      E
Hindi kase kumain simula kagabi

         A     E      D
Eh kung basketball kaya
    A       E             D          C#m
Siryoso ka ba eh, bagong kain nga sila
        A       E    D
Anong trip ang gagawin
       A                 E        D    C#m
Ba’t ‘di na lang ‘yung trip to Jerusalem

Chords Pattern:
   A  E   D  C#m  F#m
e---------2---4----2-------|
b--2------3---5----2-------|
g--2---1--2---6----2-------|
D--2---2------6----4-------|
A------2------4----4-------|
e------------------2-------|

  F#m    A      D
Ewan ko ba sa ‘yo
   F#m             A        D     E
Wala ‘tong halong biro, siryoso ito
       F#m      A        D
Ang lakas mo namang magtrip
    F#m          A    D       E
Gusto ba’ng mapalo kita sa puwit
Related for Barkada Trip tab