Song name
# A B C D E F G H I J K L M N O P Q R S T U V W X Y Z

Kiko Machine - Problema Na Naman tab

Song:Problema na Naman
Artist:Kiko Machine
Date Tabbed:May,2007
Guitar Tabber:Ryan Manongdo/17/m/Montalban Rizal
              no_falter0x@yahoo.com(Friendster&YM)

For your questions or suggestions,just post in friendster comment,PM or mail me.

Gtr.Legends:
x  - dead string or scratching
~  - let it ring
.  - palm muting
h  - hammer-on
/\ - slide

Gtr.Tuning:Standard(Normal)

Intro:
Gtr.1
e|-------------------------|
B|-------------------------|
G|-------------------------| 4x
D|-444444-5555-4444-xxxx---|
A|-222222-5555-4444-xxxx---|
E|--------3333-2222-xxxx---|

Gtr.2
e|--------------------------------------------------------------------------------------------------------------|
B|-------1010-7-5--------1010-7------------------------------1010-7-5--------1010-7-----------------------------|
G|----77--------------77------------7-7h8-7-6b-----------77--------------77------------77-66----99-77-66--------|
D|-99--------------99------------7b------------xxxx---99--------------99------------77-------77-----------xxx---|
A|---------------------------------------------xxxx-------------------------------------------------------xxx---|
E|---------------------------------------------xxxx-------------------------------------------------------xxx---|

-------------------------------------------------------------------------------------------------------------------|
-------1010-7-5--------1010-7------------------------------1010-7-5--------1010-7----------------------------------|
----77--------------77------------7-7h8-7-6b-----------77--------------77------------77-66----99-77-66-------------|
-99--------------99------------7b------------xxxx---99--------------99------------77-------77-----------7~--7/9~---|
---------------------------------------------xxxx------------------------------------------------------------------|
---------------------------------------------xxxx------------------------------------------------------------------|

Verse 1
e|--------------------|
B|--------------------|
G|-444444-------------| 2x
D|-444444-5555-4444---|
A|-222222-5555-4444---|
E|--------3333-2222---|
   ...... .... ....

Pre-Chorus:
e|----------------------------------------------------------------|
B|----------------------------------------------------------------|
G|----------------------------------------------------------------|
D|------------9999-7777-6666-5555------------5555-444444-555555---|
A|------------7777-5555-4444-3333-7777-5555--3333-222222-333333---|
E|-pickslide----------------------5555-3333-----------------------|

Chorus:
e|--------------------|
B|--------------------|
G|-444444-------------| 2x
D|-444444-5555-4444---| Then
A|-222222-5555-4444---|
E|--------3333-2222---|

e|----------------------------------------------------------------------------|
B|----------------------------------------------------------------------------|
G|----------------------------------------------------------------------------|
D|-9999-7777-6666-5555------------5555-444444------------55555-444444-55555---|
A|-7777-5555-4444-3333-7777-5555--3333-222222--7777-5555-33335-222222-33333---|
E|---------------------5555-3333---------------5555-3333----------------------|


Bridge(Adlib):
Gtr.1
e|------------------      ------|
B|------------------      ------|
G|-444444----------- 4x   -4~---|
D|-444444-5555-4444- Then -4~---|
A|-222222-5555-4444-      -2~---|
E|--------3333-2222-      ------|

Gtr.2
e|------------------------10-12--14b-12/14~--10-12---10-12~-8/12--8-10/12--------|
B|----------------12b~~----------------------------------------------------------|
G|-------------------------------------------------------------------------------|
D|-9b~~--9-11/12----------------------------------------------------------xxxx---|
A|------------------------------------------------------------------------xxxx---|
E|------------------------------------------------------------------------xxxx---|

Play this part really-really fast..

(Minor Pentatonic Scale Used)

-------------------------------5b-------55-77----55-77----55-77-----55-77----|
-------------------------33-55-------77-------77-------77--------77----------|
-------------------22-55-----------------------------------------------------|
-------------22-55-----------------------------------------------------------|
-------33-55-----------------------------------------------------------------|
-33-55-----------------------------------------------------------------------|

-4/7b---6/10b----9/12\10--10-10/14b---4-4/7b-----55-77----------0--14b~~~---|
----------------------------------------------77-------77\2/14--0-----------|
----------------------------------------------------------------0-----------|
----------------------------------------------------------------------------|
----------------------------------------------------------------------------|
----------------------------------------------------------------------------|

Bass:
G|-------------------------------------------|
D|-----------------------------------12-14---|
A|-12-141414---12-141414---12-141414---------|
E|-------------------------------------------|

After Bass prt.
e|-------------------------------|
B|-------------------------------|
G|-4--44---4--44--4--44--4--44---|
D|-------------------------------|
A|-------------------------------|
E|-------------------------------|

Outro Chorus:
e|--------------------|
B|--------------------|
G|-444444-------------| 2x
D|-444444-5555-4444---| Then
A|-222222-5555-4444---|
E|--------3333-2222---|

Repeat Intro:

Outro:
Gtr.1
e|--------------       -----|
B|--------------       -----|
G|-------------- 8x    -----|
D|-5-4--xxxxx--- Then  -4---|
A|-5-4--xxxxx---       -2---|
E|-3-2--xxxxx---       -----|
                        .

Gtr.2
e|---------------------------  -----|
B|---------------------------  -----|
G|-111111111111111111111111--  -----|
D|--x-x-x-x-x-x-x-x-x-x-x-x--  -4---|
A|--9-9-9-9-9-9-9-9-9-9-9-9--  -2---|
E|---------------------------  -----|
                                .

End...
Tap to rate this tab
 
# A B C D E F G H I J K L M N O P Q R S T U V W X Y Z