Song name
# A B C D E F G H I J K L M N O P Q R S T U V W X Y Z

Kiko Machine - Erikk Joseph tab

Takeshi’s Castle by Kiko Machine
Transcribe: joseph Estonanto/Erikk Alarcon
Note:
Lupet nito Tol!! !
Sana magustuhan nyo!! !
E2 e-mAil nAmen!! !
Joseph_Bleach@yahoo.com
Erikkdeil_15@yahoo.com
Add nYo kAme!! !
CHorDs

(Intro)F#m-F-4x
(1st Verse)E-A-E-F#m-F-2x
(Ref)B-A-2x A-break)
(Chorus)E-A-3x/Outro: F#-A-B

RePeat nYo n lNg 2nd Verse TpoZ uN n Un!!!!!

Adlib: E-A-E-F#m-F-2x
[INSTRUMENTAL]
|------4-5-------------|----------4-5~~----------------------|
|--------5---------~~--|------------5------------------------|
|--2-1-2-1-/--4--------|------2-1-2-/---4--------------------|
|----------------------|---2---------------------------------|
|----------------------|-------------------------------------|
|----------------------|-------------------------------------|

|------4-5--------~~---|----------4-5-----------------------------|
|--------5-------------|-----------5------------------------------|
|--2-1-2-1-/-4---------|------------------------------------------|
|----------------------|----------4----6-------9-9----------------|
|----------------------|------------------------------------------|
|----------------------|------------------------------------------|

SpeaKinG;
JosepH- JoSeph tO’ mUsta kO uNg trOpa kO sA KalaWaAn Cla AlvIn, JerVel,Ten2x, iChAn Ska 
bAnda nLa aMbo AnD 3LeggeD BanD! ! !
SpeaKinG;
ZthA Na uNg mGa tRopa Ko Sa CalooCan rIk 2! ! ! !
 gReaTings keLa iRael, Mark,Ony,Lala,chin nd Many moRe
Tap to rate this tab
# A B C D E F G H I J K L M N O P Q R S T U V W X Y Z