Song name
# A B C D E F G H I J K L M N O P Q R S T U V W X Y Z

Kiko Machine - Panchito tab

E|------------------------------------------------------------------------|
B|------------------------------------------------------------------------|
G|------------------------------------------------------------------------|
D|---------------7-9-7-9-11-9--11-10--------------------------------------|
A|-----7h9-7-9-7---------------------11-10-9h10-10----7-7s9-9-10-11-9-7---|
E|--7h9--------------------------------------------9----------------------|

E|------------------------------------------------------------------------|
B|------------------------------------------------------------------------|
G|------------------------------------------------------------------------|
D|----------7-9-7-9--11-9--11-10------------------------------------------|
A|----9-7----------------------11-10-9h10-9---7-7s9-9-10--11--------------|
E|--7---------------------------------------9-----------------------------|

E|------------------------------------------------------------------------|
B|------------------------------------------------------------------------|
G|------------------------------------------------------------------------|
D|------------------------------------------------------------------------|
A|--13-13-13-13--15-15-13-13--12-12-12-12-14-14-12-12--11-11-11-11-11-11--|
E|------------------------------------------------------------------------|

E|------------------------------------------------------------------------|
B|------------------------------------------------------------------------|
G|------------------------------------------------------------------------|
D|-----9-9-9-9-9-9-9------------------------------------------------------|
A|--12---------------13-13-13-13--16-16--12-12-12-12-14-14-12-12----------|
E|------------------------------------------------------------------------|

E|------------------------------------------------------------------------|
B|------------------------------------------------------------------------|
G|------------------------------------------------------------------------|
D|---------------------------9--9-9--9--9---------------------------------|
A|--11-11-11-11-11-11--11h12----------------------------------------------|
E|------------------------------------------------------------------------|



Tap to rate this tab
# A B C D E F G H I J K L M N O P Q R S T U V W X Y Z