Song name
# A B C D E F G H I J K L M N O P Q R S T U V W X Y Z

Kiko Rodriguez - El Verde De Tus Ojos tab

El Verde De Tus Ojos – Kiko Rodriguez

Tabbed by:Jay8993
Email: Jeremy_m_sanchez@sbcglobal.net

Tuning: Standard EADGBe

The song is very repetitive listen to the song and youll get a good idea of what I mean

Intro/Verse: Play 3x

e|--12----12-12-12-12-12-12-12------10-----10-10-10-10-10-10-10------------------|
B|-----12--------------------------------10---------------------------------- ---|
G|-------------------------------------------------------------------------------|
D|-------------------------------------------------------------------------------|
A|-------------------------------------------------------------------------------|
E|-------------------------------------------------------------------------------|

After playing intro 3x then play this 3x

e|--15—12-12-12----------12-12-12--14-10-10-10----------10-10-10-------------|
B|--------------12-12-12-----------------------10-10-10----------------------|
G|---------------------------------------------------------------------------|
D|---------------------------------------------------------------------------|
A|---------------------------------------------------------------------------|
E|---------------------------------------------------------------------------|
After playing that 3x go back and play the intro/verse 9x
After that play the 2nd part 4x
Then it jumps back into the intro/verse and u play that 9x
2nd part 4x
Intro/verse 4x
2nd part 4x
Intro/verse 9x
2nd part 4x
Intro/verse 9x
2nd part 4x
Then this part 2x

e|--15-12-15-15-15-15-15-15-15-15---14-10-14-14-14-14-14-14-14-14---------------|
B|------------------------------------------------------------------------------|
G|------------------------------------------------------------------------------|
D|------------------------------------------------------------------------------|
A|------------------------------------------------------------------------------|
E|------------------------------------------------------------------------------|
2nd part 4x
Intro/verse 9x
2nd part 4x times but in the 4th one should look like this
e|--15—12-12-12----------12-12-12--14-10-10-10----------10-10-10---10--12------|
B|--------------12-12-12-----------------------10-10-10----------------12------|
G|-----------------------------------------------------------------------------|
D|-----------------------------------------------------------------------------|
A|-----------------------------------------------------------------------------|
E|-----------------------------------------------------------------------------|
And that’s pretty much the whole song told you it was repetitive.
Tap to rate this tab
 
# A B C D E F G H I J K L M N O P Q R S T U V W X Y Z