Song name
# A B C D E F G H I J K L M N O P Q R S T U V W X Y Z

Kilians - Short Life Of Margott tab

Short Life of Margott
from Kilians
----------------------
tabbed by Rouven

I know this is not perfect, but sounds pretty good, and is maybe a good help to 
play this very nice song !
----------------------

Intro: (Second guitar bracketed)
    E                        D
|-----------------------------|--------------------------|
|-----------------------------|--7--8--7--8--7--8--7--8--|
|--8(9)--9--8--9--8--9--8--9--|-(7)----------------------|
|---(9)-----------------------|-(7)----------------------|
|---(7)-----------------------|-(5)----------------------|
|-----------------------------|--------------------------|

    E                        D
|-----------------------(7)----|------------------------|
|-----------------------(7)----|--7--8--7--8--7--8--7---|
|--8(9)-9--8--9--8--9--8(9)-9--|-(7)--------------------|
|---(9)------------------------|-(7)--------------------|
|---(7)------------------------|-(5)--------------------|
|------------------------------|------------------------|


Chorus (no vocals first time)(same riff twice for each chord)(slide to E for the Verse)

  E      G  (2x)

Chorus riff:
|--12--12--12--12--10--7--------------------------------|
|---------------------------11--8--11--8--11--8--11--8--|
|-------------------------------------------------------|    4x
|-------------------------------------------------------|
|-------------------------------------------------------|
|-------------------------------------------------------|


Verse (let E ring, play riff for G and A)

 (^E)
     I want to find someone who's wasting my time,
                                                G      A
     I want to find someone who's wasting my time

     I want to find someone who's wasting my time,
                                                G      A
     I want to find someone who's wasting my time

Verse riff:
|------------------------------------------------|------------------------------------------------|
|------------------------------------------------|------------------------------------------------|
|------------------------------------------------|------------------------------------------------|
|12-12-12-12-12-12-12-12-12-12-12-12-12-12-12-12-|-7--7--7--7--7--7--7--7--7--7--7--7--7--7--7--7-|
|------------------------------------------------|------------------------------------------------|
|------------------------------------------------|------------------------------------------------|


and all of you know try to get to waste all my time
and all of you know try to get to waste all my time, my time


 (^E)
     I want to find someone who's wasting my time,
                                                G      A
     I want to find someone who's wasting my time

     I want to find someone who's wasting my time,
                                                G      A
     I want to find someone who's fucking my time


and all of you know try to get to waste all my time
and all of you know try to get to waste all my time, my time

Bridge:
 (E) (strum a bit)

  A             D          A        D         (4x)

  A             D          A             (E)  (8x)
|---------------------------------------------------|
|---------------------------------------------------|
|---------------------------------------------------|
|-----------------------------------------5---------|
|------------5--7--5----------------5--7----7-------|
|--5---5--8----------8--------5--8------------------|


End on A
Tap to rate this tab
# A B C D E F G H I J K L M N O P Q R S T U V W X Y Z