Song name
# A B C D E F G H I J K L M N O P Q R S T U V W X Y Z

Kill Casino - Best Served Cold tab

                          K I L L    C A S I N O

                             BEST SERVED COLD

WEBSITE:WWW.MYSPACE.COM/KILLCASINO
STANDARD TUNING YO
THE ROCKSTOMPING NEW SINGLE FROM THE LONDON TRIO, TABBED IN FULL SO YOU TOO CAN TRY TO 
AS COOL AS THEM. LETS GET ROCKIN.

I N T R O   R I F F
----------------------------------------------------------|
----------------------------------------------------------|
----------------------------------------------------------|
--5-5-5---------------------------------------------------|
--5-5-5--5--6--5--6--1--1--3--1--0--0--1--0---------------|
--3-3-3---------------------------------------------------|  (4 TIMES)

V E R S E

(AGONIES... OF A TORTURED MIND...)
---------------------------------------------------------------|
---------------------------------------------------------------|
---------7-7-7--7-7--7-7----------8-8\7-7-7--X-X-X--5-5-X--7-7-|
--5-5-5--7-7-7--7-7--7-7---5-5-5--8-8\7-7-7--X-X-X--5-5-X--7-7-|
--5-5-5--5-5-5--5-5--5-5---5-5-5--6-6\5-5-5--X-X-X--3-3-X--5-5-|
--3-3-3--------------------3-3-3-------------------------------|

(DELIRIOUS...)
----------------------------------------------------------|
----------------------------------------------------------|
----------------------------------------------------------|
--5-5-5---------------------------------------------------|
--5-5-5--5--6--5--6--1--1--3--1--0--0--1--0---------------|
--3-3-3---------------------------------------------------|  (4 TIMES)

I N T E R L U D E
-------------------------------------------------------------|
-------------------------------------------------------------|
--------------------------------------------\6-6-6-6-6-6-6-6-|
--5-5--7-8-7-8\4-4-4-4-4-4-4-4--5-5--7-8-7-8\6-6-6-6-6-6-6-6-|
--5-5--7-8-7-8\4-4-4-4-4-4-4-4--5-5--7-8-7-8\4-4-4-4-4-4-4-4-|
--3-3--5-6-5-6\2-2-2-2-2-2-2-2--3-3--5-6-5-6-----------------| (4 TIMES)

C H O R U S
(AND IN THE END IF YOU'RE GOING DOWN...)
------------------------------------------------------------|
------------------------------------------------------------|
--5-5-5-5-5-5-5-5/8-8-8-8-8-8-8-8----------------------4-4--|
--5-5-5-5-5-5-5-5/8-8-8-8-8-8-8-8-8-8-8-8-8-8-8-8/5-5--4-4--|
--3-3-3-3-3-3-3-5/6-6-6-6-6-6-6-6-8-8-8-8-8-8-8-8/5-5--2-2--|
----------------------------------6-6-6-6-6-6-6-6/3-3-------|

---------------------------------------------------------------|
---------------------------------------------------------------|
--5-5-5-5-5-5-5-5/8-8-8-8-8-8-8-8------------------------------|
--5-5-5-5-5-5-5-5/8-8-8-8-8-8-8-8-8-8-8-8-8-8-8-8/5-5-5-5--5-5-|
--3-3-3-3-3-3-3-5/6-6-6-6-6-6-6-6-8-8-8-8-8-8-8-8/5-5-5-5--5-5-|
----------------------------------6-6-6-6-6-6-6-6/3-3-3-3--3-3-|

I N T R O   R I F F
----------------------------------------------------------|
----------------------------------------------------------|
----------------------------------------------------------|
--5-5-5---------------------------------------------------|
--5-5-5--5--6--5--6--1--1--3--1--0--0--1--0---------------|
--3-3-3---------------------------------------------------| (2 TIMES)

V E R S E  2

(MELODIES... OF EXHAUSTED KIND...)
---------------------------------------------------------------|
---------------------------------------------------------------|
---------7-7-7--7-7--7-7----------8-8\7-7-7--X-X-X--5-5-X--7-7-|
--5-5-5--7-7-7--7-7--7-7---5-5-5--8-8\7-7-7--X-X-X--5-5-X--7-7-|
--5-5-5--5-5-5--5-5--5-5---5-5-5--6-6\5-5-5--X-X-X--3-3-X--5-5-|
--3-3-3--------------------3-3-3-------------------------------|

(DELIRIOUS...)
----------------------------------------------------------|
----------------------------------------------------------|
----------------------------------------------------------|
--5-5-5---------------------------------------------------|
--5-5-5--5--6--5--6--1--1--3--1--0--0--1--0---------------|
--3-3-3---------------------------------------------------|  (4 TIMES)


I N T E R L U D E
-------------------------------------------------------------|
-------------------------------------------------------------|
--------------------------------------------\6-6-6-6-6-6-6-6-|
--5-5--7-8-7-8\4-4-4-4-4-4-4-4--5-5--7-8-7-8\6-6-6-6-6-6-6-6-|
--5-5--7-8-7-8\4-4-4-4-4-4-4-4--5-5--7-8-7-8\4-4-4-4-4-4-4-4-|
--3-3--5-6-5-6\2-2-2-2-2-2-2-2--3-3--5-6-5-6-----------------| (4 TIMES)


C H O R U S
(AND IN THE END IF YOU'RE GOING DOWN...)
------------------------------------------------------------|
------------------------------------------------------------|
--5-5-5-5-5-5-5-5/8-8-8-8-8-8-8-8----------------------4-4--|
--5-5-5-5-5-5-5-5/8-8-8-8-8-8-8-8-8-8-8-8-8-8-8-8/5-5--4-4--|
--3-3-3-3-3-3-3-5/6-6-6-6-6-6-6-6-8-8-8-8-8-8-8-8/5-5--2-2--|
----------------------------------6-6-6-6-6-6-6-6/3-3-------|

C H O R U S
(AND IN THE END IF YOU'RE GOING DOWN...)
------------------------------------------------------------|
------------------------------------------------------------|
--5-5-5-5-5-5-5-5/8-8-8-8-8-8-8-8----------------------4-4--|
--5-5-5-5-5-5-5-5/8-8-8-8-8-8-8-8-8-8-8-8-8-8-8-8/5-5--4-4--|
--3-3-3-3-3-3-3-5/6-6-6-6-6-6-6-6-8-8-8-8-8-8-8-8/5-5--2-2--|
----------------------------------6-6-6-6-6-6-6-6/3-3-------|

------------------------------------------------------------|
------------------------------------------------------------|
--5-5-5-5-5-5-5-5/8-8-8-8-8-8-8-8----------------------4-4--|
--5-5-5-5-5-5-5-5/8-8-8-8-8-8-8-8-8-8-8-8-8-8-8-8/5-5--4-4--|
--3-3-3-3-3-3-3-5/6-6-6-6-6-6-6-6-8-8-8-8-8-8-8-8/5-5--2-2--|
----------------------------------6-6-6-6-6-6-6-6/3-3-------|

------------------------------------------------------------------|
------------------------------------------------------------------|
--5-5-5-5-5-5-5-5/8-8-8-8-8-8-8-8---------------------------------|
--5-5-5-5-5-5-5-5/8-8-8-8-8-8-8-8-8-8-8-8-8-8-8-8/5-5-5-5-5-5-5-5-|
--3-3-3-3-3-3-3-5/6-6-6-6-6-6-6-6-8-8-8-8-8-8-8-8/5-5-5-5-5-5-5-5-|
----------------------------------6-6-6-6-6-6-6-6/3-3-3-3-3-3-3-3-|

------------------------------------------------------------------|
------------------------------------------------------------------|
--5-5-5-5-5-5-5-5/8-8-8-8-8-8-8-8---------------------------------|
--5-5-5-5-5-5-5-5/8-8-8-8-8-8-8-8-8-8-8-8-8-8-8-8-8-8-8-8-8-8-8-8-|
--3-3-3-3-3-3-3-5/6-6-6-6-6-6-6-6-8-8-8-8-8-8-8-8-8-8-8-8-8-8-8-8-|
----------------------------------6-6-6-6-6-6-6-6-6-6-6-6-6-6-6-6-|

S O L O

(PUT YOUR HEAD DOWN) ON 3RD ROUND
------------------------------------------------------------------|
------------------------------------------------------------------|
--------5---------------------------------------------------------|
-----6----6--5--6--5--3-------------------------------------------|
--3----------------------5--6--6--8--6--5--5--6--5----------------|
------------------------------------------------------------------| (TIMES 2)

------------------------------------------------------------------|
------------------------------------------------------------------|
--------5---------------------------------------------------------|
-----6----6--5--6--5--3-------------------------------------------|
--3----------------------5--6--6--8--6--5--5--6--5-3--------------|
------------------------------------------------------------------|

------------------------------------------------------------------|
------------------------------------------------------------------|
------------------------------------------------------------------|
-----6--5--3--5--3--1--0--------6--5--3--5--3--1--0---------------|
--3--------------------------3------------------------------------| (TIMES 2)
------------------------------------------------------------------|


V E R S E   3
(AND IN THIS SOLITARY STATE...)
------------------------------------------------------------------|
------------------------------------------------------------------|
--5----8----3------------5----8----3------------------------------|
--5----8----3----5-------5----8----3----5-------------------------|
--3----8----1----5-------3----6----1----5-------------------------|
-----------------3----------------------3-------------------------|

--------------------------------------------------------------------|
--------------------------------------------------------------------|
--------------------------------------------------------------------|
-5-5-5-5-5-5-5-5--8-8-8-8-8-8-8-8--3-3-3-3-3-3-3-3------------------|
-3-3-3-3-3-3-3-3--6-6-6-6-6-6-6-6--1-1-1-1-1-1-1-1--5-5-5-5-5-5-5-5-|
----------------------------------------------------3-3-3-3-3-3-3-3-|(TIMES 3)

--------------------------------------------------------------------|
--------------------------------------------------------------------|
--------------------------------------------------------------------|
--5-5-5-5-5-5-5-5--8-8-8-8-8-8-8-8--3-X-X-3-X-X-3-------------------|
--3-3-3-3-3-3-3-3--6-6-6-6-6-6-6-6--1-X-X-1-X-X-1-------------------|
--------------------------------------------------------------------|

C H O R U S

(AND IN THE END IF YOU'RE GOING DOWN...)
------------------------------------------------------------|
------------------------------------------------------------|
--5-5-5-5-5-5-5-5/8-8-8-8-8-8-8-8----------------------4-4--|
--5-5-5-5-5-5-5-5/8-8-8-8-8-8-8-8-8-8-8-8-8-8-8-8/5-5--4-4--|
--3-3-3-3-3-3-3-5/6-6-6-6-6-6-6-6-8-8-8-8-8-8-8-8/5-5--2-2--|
----------------------------------6-6-6-6-6-6-6-6/3-3-------|

------------------------------------------------------------|
------------------------------------------------------------|
--5-5-5-5-5-5-5-5/8-8-8-8-8-8-8-8----------------------4-4--|
--5-5-5-5-5-5-5-5/8-8-8-8-8-8-8-8-8-8-8-8-8-8-8-8/5-5--4-4--|
--3-3-3-3-3-3-3-5/6-6-6-6-6-6-6-6-8-8-8-8-8-8-8-8/5-5--2-2--|
----------------------------------6-6-6-6-6-6-6-6/3-3-------|

------------------------------------------------------------------|
------------------------------------------------------------------|
--5-5-5-5-5-5-5-5/8-8-8-8-8-8-8-8---------------------------------|
--5-5-5-5-5-5-5-5/8-8-8-8-8-8-8-8-8-8-8-8-8-8-8-8/5-5-5-5-5-5-5-5-|
--3-3-3-3-3-3-3-5/6-6-6-6-6-6-6-6-8-8-8-8-8-8-8-8/5-5-5-5-5-5-5-5-|
----------------------------------6-6-6-6-6-6-6-6/3-3-3-3-3-3-3-3-|

-----------------------------------------------------------------|
-----------------------------------------------------------------|
--5-5-5-5-5-5-5-5/8-8-8-8-8-8-8-8--------------------------------|
--5-5-5-5-5-5-5-5/8-8-8-8-8-8-8-8--8-X-X-8-----------------------|
--3-3-3-3-3-3-3-5/6-6-6-6-6-6-6-6--8-X-X-8-----------------------|
-----------------------------------6-X-X-6-----------------------|
Tap to rate this tab
# A B C D E F G H I J K L M N O P Q R S T U V W X Y Z