Guitaretab - guitar tabs
Song name
# A B C D E F G H I J K L M N O P Q R S T U V W X Y Z

Kill Cheerleader - No Lullabies tab

All Credit to "talkingsmall" of reddit!

Order: Verse a x2
       Verse b x1
       Verse a x1
       Chorus x2
       Verse a x2
       Verse b x2
       Verse a x1
       Chorus x2
       Bridge x2, let Am ring out second time (don't hit final C)
       Solo A
       Solo B (fadeout)

Verse A
    |------------------------0-----------------------------------|
    |--------------------1-----1---1-------1-------------0-------|
    |--------0-------------2-----2-----2-----2---2---0-----0---0-|
    |----2-----2---2---3-----------------------2-----------------|
    |--------------------------------0---0-----------------------|
    |--0---0-----0---------------------------------3---3-----3---|

Verse B
    |------------------------3-----------------------------------|
    |--------------------1-----1---1-------3-------------0-------|
    |--------0-------------2-----2-----2-----2---2---0-----0---0-|
    |----2-----2---2---3-----------------------2-----------------|
    |--------------------------------0---0-----------------------|
    |--0---0-----0---------------------------------3---3-----3---|

Finv

    |--0
    |--1
    |--2
    |--3
    |--3
    |---

Chorus:

    Finv, Am, G, Finv, C, G, Finv Am

Chorus end:
    Finv, G
[ Tab from: http://www.guitaretab.com/k/kill-cheerleader/316778.html ]
Bridge:
    Dm, G, C, G, F, G, Am, C

Solo:
    Em, F, Am, G

Solo A:
|------------------------------10-8-7h8p7----7-------------------|
|---------------------------10------------10--10-8---------------|
|---------5---7-5---5-7/9\7------------------------9-5-7h9p7\5p7-|
|-----------7-----7----------------------------------------------|
|5/7--5-7--------------------------------------------------------|
|----------------------------------------------------------------|

|--------------------------------------------------|
|--------------------------------------------------|
|--------7h9p7\5h7----5----------------------------|
|------5---------------7--7------------------------|
|--5-7------------5-7------7b8-5p3-----3b4--2-3-2--|
|---------------------------------5p3h5----5-----5-|

|----------------------------------------------------------------------------|
|-------------------------------------15---12b13b12-13-12--------------------|
|---------------10-9-------9------12---------------------14-----12-14-14b----|
|------7-9-10-9-----10-7--7----/14--14---------------------12h14-------------|
|-----------------------10---------------------------------------------------|
|--5-7-----------------------------------------------------------------------|
Related for No Lullabies tab
No Lullabies chords by Kill Cheerleader