Song name
# A B C D E F G H I J K L M N O P Q R S T U V W X Y Z

Kill Hannah - Lugias Song tab

Song Title: Lugia's Song
Artist: Kill Hannah

Hi i'm Justin Galeon this is my the first time to send a tab here....... HOPE YOU LIKE IT

E|0--3--2----0---|--0--3--2-------|-0---3--7----12|--10--7--3---5-|-7--5--0---------|
B|--------3-----0|-----------3--0-|---------------|---------------|-----------------|
G|---------------|----------------|---------------|---------------|-----------------|
D|---------------|----------------|---------------|---------------|-----------------|
A|---------------|----------------|---------------|---------------|-----------------|
e|---------------|----------------|---------------|---------------|-----------------|

E|0--7--5--2-----2|-2--0-----0-----|
B|------------3---|-------3--------|
G|----------------|----------------|
D|----------------|----------------|
A|----------------|----------------|
e|----------------|----------------|

E|0--3--2----0---|--0--3--2--10--7|--5--7---12--10|--7--3---5--7--|5--0-------------|
B|--------3-----0|----------------|---------------|---------------|-----------------|
G|---------------|----------------|---------------|---------------|-----------------|
D|---------------|----------------|---------------|---------------|-----------------|
A|---------------|----------------|---------------|---------------|-----------------|
e|---------------|----------------|---------------|---------------|-----------------|

E|0--7--5--2-----2|-2--0-----0-----|
B|------------3---|-------3--------|
G|----------------|----------------|
D|----------------|----------------|
A|----------------|----------------|
e|----------------|----------------|

END....
Tap to rate this tab
 
# A B C D E F G H I J K L M N O P Q R S T U V W X Y Z