Song name
# A B C D E F G H I J K L M N O P Q R S T U V W X Y Z

Kill Hannah - Unwanted tab

#----------------------------------PLEASE NOTE---------------------------------#
#This file is the author's own work and represents their interpretation of the #
#song. You may only use this file for private study, scholarship, or research. #
#------------------------------------------------------------------------------#

UNWANTED
As recorded by Kill Hannah
(From the 2004 Album FOR NEVER & EVER)


	



Gtr I (E A D G B E) - 'Untitled'
Gtr II (E A D G B E) - 'Untitled'

  Q=160
 4/4
  Gtrs I, II
  E E E E E E E E   E E E E +E  E E E
|-----------------|-------------------|
|-----------------|-------------------|
|-----------------|-8s9-9-8-(8)-8-4s6-|
|-6-6-6-6-6-6-6-6-|-x-x-x-x-(x)-x-x-x-|
|-6-6-6-6-6-6-6-6-|-6s7-7-6-(6)-6-2s4-|
|-4-4-4-4-4-4-4-4-|-------------------|


  E E E E E E E E   E E E  E  +E   E E E
|-----------------|-----------------------|
|-----------------|-----------------------|
|-----------------|-8s9-9-11-(11)-11-4s6--|
|-6-6-6-6-6-6-6-6-|-x-x-x--x--(x)--x-x-x--|
|-6-6-6-6-6-6-6-6-|-6s7-7--9--(9)--9-2s4--|
|-4-4-4-4-4-4-4-4-|-----------------------|


  Gtr I
  E E E E E E E E   E E E E +E  E E E   W                 W
|-----------------|-------------------|-----------------|-----------------|
|-----------------|-------------------|-----------------|-----------------|
|-----------------|-8s9-9-8-(8)-8-4s6-|-----------------|-----------------|
|-6-6-6-6-6-6-6-6-|-x-x-x-x-(x)-x-x-x-|-6---------------|-----------------|
|-6-6-6-6-6-6-6-6-|-6s7-7-6-(6)-6-2s4-|-6---------------|-----------------|
|-4-4-4-4-4-4-4-4-|-------------------|-4---------------|-----------------|
|
| Gtr II
|                                       PM------------------------------|
| E E E E E E E E   E E E E +E  E E E   E E E E E E E E   E E E E E E E E
|-----------------|-------------------|-----------------|-----------------|
|-----------------|-------------------|-----------------|-----------------|
|-----------------|-8s9-9-8-(8)-8-4s6-|-----------------|-----------------|
|-6-6-6-6-6-6-6-6-|-x-x-x-x-(x)-x-x-x-|-6-6-6-6-6-6-6-6-|-6-6-6-6-6-6-6-6-|
|-6-6-6-6-6-6-6-6-|-6s7-7-6-(6)-6-2s4-|-6-6-6-6-6-6-6-6-|-6-6-6-6-6-6-6-6-|
|-4-4-4-4-4-4-4-4-|-------------------|-4-4-4-4-4-4-4-4-|-4-4-4-4-4-4-4-4-|


  Gtr II                              Gtrs I, II
  PM------------------------------|
  E E E E E E E E   E E E E E E E E   E E E E E E E E   E E E E E E E E
|-----------------|-----------------|-----------------|-----------------|
|-----------------|-----------------|-----------------|-----------------|
|-----------------|-----------------|-8-8-8-8-8-8-8-8-|-8-8-8-8-8-8-8-8-|
|-2-2-2-2-2-2-2-2-|-2-2-2-2-2-2-2-2-|-x-x-x-x-x-x-x-x-|-x-x-x-x-x-x-x-x-|
|-2-2-2-2-2-2-2-2-|-2-2-2-2-2-2-2-2-|-6-6-6-6-6-6-6-6-|-6-6-6-6-6-6-6-6-|
|-0-0-0-0-0-0-0-0-|-0-0-0-0-0-0-0-0-|-----------------|-----------------|


  Gtr I
  E E E E E E E E   E E E E E E +Q     W                 W
|-----------------|------------------|-----------------|-----------------|
|-----------------|------------------|-----------------|-----------------|
|-9-9-9-9-9-9-9-9-|-9-9-9-9-9-8-(8)--|-----------------|-----------------|
|-x-x-x-x-x-x-x-x-|-x-x-x-x-x-x-(x)--|-6---------------|-----------------|
|-7-7-7-7-7-7-7-7-|-7-7-7-7-7-6-(6)--|-6---------------|-----------------|
|-----------------|------------------|-4---------------|-----------------|
|
| Gtr II
|                                      PM------------------------------|
| E E E E E E E E   E E E E E E +Q     E E E E E E E E   E E E E E E E E
|-----------------|------------------|-----------------|-----------------|
|-----------------|------------------|-----------------|-----------------|
|-9-9-9-9-9-9-9-9-|-9-9-9-9-9-8-(8)--|-----------------|-----------------|
|-x-x-x-x-x-x-x-x-|-x-x-x-x-x-x-(x)--|-6-6-6-6-6-6-6-6-|-6-6-6-6-6-6-6-6-|
|-7-7-7-7-7-7-7-7-|-7-7-7-7-7-6-(6)--|-6-6-6-6-6-6-6-6-|-6-6-6-6-6-6-6-6-|
|-----------------|------------------|-4-4-4-4-4-4-4-4-|-4-4-4-4-4-4-4-4-|


  Gtr II                              Gtrs I, II
  PM------------------------------|
  E E E E E E E E   E E E E E E E E   E E E E E E E E   E E E E E E E E
|-----------------|-----------------|-----------------|-----------------|
|-----------------|-----------------|-----------------|-----------------|
|-----------------|-----------------|-8-8-8-8-8-8-8-8-|-8-8-8-8-8-8-8-8-|
|-2-2-2-2-2-2-2-2-|-2-2-2-2-2-2-2-2-|-x-x-x-x-x-x-x-x-|-x-x-x-x-x-x-x-x-|
|-2-2-2-2-2-2-2-2-|-2-2-2-2-2-2-2-2-|-6-6-6-6-6-6-6-6-|-6-6-6-6-6-6-6-6-|
|-0-0-0-0-0-0-0-0-|-0-0-0-0-0-0-0-0-|-----------------|-----------------|


                             To Coda
  E E E E E E E E   E E E E E E E E
|-----------------|-----------------|
|-----------------|-----------------|
|-9-9-9-9-9-9-9-9-|-9-9-9-9-9-9-9-9-|
|-x-x-x-x-x-x-x-x-|-x-x-x-x-x-x-x-x-|
|-7-7-7-7-7-7-7-7-|-7-7-7-7-7-7-7-7-|
|-----------------|-----------------|


  E E E E  E  E  E  E    E  E  E  E  E  E  +Q
|---------------------|--------------------------|
|---------------------|--------------------------|
|-9-9-9-9-11-11-11-11-|-13-13-13-13-14-14-(14)\--|
|-x-x-x-x--x--x--x--x-|--x--x--x--x--x--x--(x)---|
|-7-7-7-7--9--9--9--9-|-11-11-11-11-12-12-(12)\--|
|---------------------|--------------------------|


  E E E E E E Q      E  E  E  E  Q   E E
|-----------------|----------------------|
|-----------------|----------------------|
|-8h9-8h9-8h9-8S==|=15h16-15h16-15S==8h9-|
|-----------------|----------------------|
|-----------------|----------------------|
|-----------------|----------------------|
|
| Gtr II
| E E E E E E E E    E  E  E  E  E E E E
|-----------------|----------------------|
|-----------------|----------------------|
|-----------------|----------------------|
|-9-9-9-9-9-9-9-9-|--8--8--8--8--8-8-8-8-|
|-9-9-9-9-9-9-9-9-|--8--8--8--8--8-8-8-8-|
|-7-7-7-7-7-7-7-7-|--6--6--6--6--6-6-6-6-|


  E E E E E E Q      E  E  E  E  Q   E E
|-----------------|----------------------|
|-----------------|----------------------|
|-8h9-8h9-8h9-8S==|=15h16-15h16-15S==8h9-|
|-----------------|----------------------|
|-----------------|----------------------|
|-----------------|----------------------|
|
| E E E E E E E E    E  E  E  E  E E E E
|-----------------|----------------------|
|-----------------|----------------------|
|-----------------|----------------------|
|-6-6-6-6-6-6-6-6-|--2--2--2--2--2-2-2-2-|
|-6-6-6-6-6-6-6-6-|--2--2--2--2--2-2-2-2-|
|-4-4-4-4-4-4-4-4-|--0--0--0--0--0-0-0-0-|


  E E E E E E Q      E  E  E  E  Q   E E
|-----------------|----------------------|
|-----------------|----------------------|
|-8h9-8h9-8h9-8S==|=15h16-15h16-15S==8h9-|
|-----------------|----------------------|
|-----------------|----------------------|
|-----------------|----------------------|
|
| E E E E E E E E    E  E  E  E  E E E E
|-----------------|----------------------|
|-----------------|----------------------|
|-----------------|----------------------|
|-9-9-9-9-9-9-9-9-|--8--8--8--8--8-8-8-8-|
|-9-9-9-9-9-9-9-9-|--8--8--8--8--8-8-8-8-|
|-7-7-7-7-7-7-7-7-|--6--6--6--6--6-6-6-6-|


  E E E E E E Q      E  E  E  E  Q   E E
|-----------------|----------------------|
|-----------------|----------------------|
|-8h9-8h9-8h9-8S==|=15h16-15h16-15S==8h9-|
|-----------------|----------------------|
|-----------------|----------------------|
|-----------------|----------------------|
|
| E E E E E E E E    E  E  E  E  E E E E
|-----------------|----------------------|
|-----------------|----------------------|
|-----------------|----------------------|
|-6-6-6-6-6-6-6-6-|--2--2--2--2--2-2-2-2-|
|-6-6-6-6-6-6-6-6-|--2--2--2--2--2-2-2-2-|
|-4-4-4-4-4-4-4-4-|--0--0--0--0--0-0-0-0-|


  E E E E E E Q      E  E  E  E  Q   E E
|-----------------|----------------------|
|-----------------|----------------------|
|-8h9-8h9-8h9-8S==|=15h16-15h16-15S==8h9-|
|-----------------|----------------------|
|-----------------|----------------------|
|-----------------|----------------------|
|
| E E E E E E E E    E  E  E  E  E E E E
|-----------------|----------------------|
|-----------------|----------------------|
|-----------------|----------------------|
|-9-9-9-9-9-9-9-9-|--8--8--8--8--8-8-8-8-|
|-9-9-9-9-9-9-9-9-|--8--8--8--8--8-8-8-8-|
|-7-7-7-7-7-7-7-7-|--6--6--6--6--6-6-6-6-|


  E E E E E E Q      E  E  E  E  Q   E E
|-----------------|----------------------|
|-----------------|----------------------|
|-8h9-8h9-8h9-8S==|=15h16-15h16-15S==8h9-|
|-----------------|----------------------|
|-----------------|----------------------|
|-----------------|----------------------|
|
| E E E E E E E E    E  E  E  E  E E E E
|-----------------|----------------------|
|-----------------|----------------------|
|-----------------|----------------------|
|-6-6-6-6-6-6-6-6-|--2--2--2--2--2-2-2-2-|
|-6-6-6-6-6-6-6-6-|--2--2--2--2--2-2-2-2-|
|-4-4-4-4-4-4-4-4-|--0--0--0--0--0-0-0-0-|


  E E E E E E Q      E  E  E  E  Q   E E
|-----------------|----------------------|
|-----------------|----------------------|
|-8h9-8h9-8h9-8S==|=15h16-15h16-15S==8h9-|
|-----------------|----------------------|
|-----------------|----------------------|
|-----------------|----------------------|
|
| E E E E E E E E    E  E  E  E  E E E E
|-----------------|----------------------|
|-----------------|----------------------|
|-----------------|----------------------|
|-9-9-9-9-9-9-9-9-|--8--8--8--8--8-8-8-8-|
|-9-9-9-9-9-9-9-9-|--8--8--8--8--8-8-8-8-|
|-7-7-7-7-7-7-7-7-|--6--6--6--6--6-6-6-6-|


                          D.C. al Coda
  E E E E E E Q      E  E  E  E  E  E  +Q
|-----------------|--------------------------|
|-----------------|--------------------------|
|-8h9-8h9-8h9-8S==|=15h16-15h16-15-15-(15)\--|
|-----------------|--------------------------|
|-----------------|--------------------------|
|-----------------|--------------------------|
|
| E E E E E E E E    E  E  E  E  E  E  +Q
|-----------------|--------------------------|
|-----------------|--------------------------|
|-----------------|--------------------------|
|-6-6-6-6-6-6-6-6-|--2--2--2--2--2--2--(2)---|
|-6-6-6-6-6-6-6-6-|--2--2--2--2--2--2--(2)---|
|-4-4-4-4-4-4-4-4-|--0--0--0--0--0--0--(0)---|


  &
  Q.   S S Q.   S S   Q.   S S E E Q
|-------------------|-----------------|
|-------------------|-----------------|
|-9----9-9-9----9-9-|-9----9-9-9s4----|
|-x----x-x-x----x-x-|-x----x-x-x-x----|
|-7----7-7-7----7-7-|-7----7-7-7s2----|
|-------------------|-----------------|


  E E E E  E  E  E  E    E  E  E  E  E  E  +Q
|---------------------|----------------------------|
|---------------------|----------------------------|
|-9-9-9-9-11-11-11-11-|-13-13-13-13-14-14-(14)\----|
|-x-x-x-x--x--x--x--x-|--x--x--x--x--x--x--(x)-----|
|-7-7-7-7--9--9--9--9-|-11-11-11-11-12-12-(12)\----|
|---------------------|----------------------------|


  E E E E E E Q      E  E  E  E  Q   E E
|-----------------|----------------------|
|-----------------|----------------------|
|-8h9-8h9-8h9-8S==|=15h16-15h16-15S==8h9-|
|-----------------|----------------------|
|-----------------|----------------------|
|-----------------|----------------------|
|
| Gtr II
| E E E E E E E E    E  E  E  E  E E E E
|-----------------|----------------------|
|-----------------|----------------------|
|-----------------|----------------------|
|-9-9-9-9-9-9-9-9-|--8--8--8--8--8-8-8-8-|
|-9-9-9-9-9-9-9-9-|--8--8--8--8--8-8-8-8-|
|-7-7-7-7-7-7-7-7-|--6--6--6--6--6-6-6-6-|


  E E E E E E Q      E  E  E  E  Q   E E
|-----------------|----------------------|
|-----------------|----------------------|
|-8h9-8h9-8h9-8S==|=15h16-15h16-15S==8h9-|
|-----------------|----------------------|
|-----------------|----------------------|
|-----------------|----------------------|
|
| E E E E E E E E    E  E  E  E  E E E E
|-----------------|----------------------|
|-----------------|----------------------|
|-----------------|----------------------|
|-6-6-6-6-6-6-6-6-|--2--2--2--2--2-2-2-2-|
|-6-6-6-6-6-6-6-6-|--2--2--2--2--2-2-2-2-|
|-4-4-4-4-4-4-4-4-|--0--0--0--0--0-0-0-0-|


  E E E E E E Q      E  E  E  E  Q   E E
|-----------------|----------------------|
|-----------------|----------------------|
|-8h9-8h9-8h9-8S==|=15h16-15h16-15S==8h9-|
|-----------------|----------------------|
|-----------------|----------------------|
|-----------------|----------------------|
|
| E E E E E E E E    E  E  E  E  E E E E
|-----------------|----------------------|
|-----------------|----------------------|
|-----------------|----------------------|
|-9-9-9-9-9-9-9-9-|--8--8--8--8--8-8-8-8-|
|-9-9-9-9-9-9-9-9-|--8--8--8--8--8-8-8-8-|
|-7-7-7-7-7-7-7-7-|--6--6--6--6--6-6-6-6-|


  E E E E E E Q      E  E  E  E  Q   E E
|-----------------|----------------------|
|-----------------|----------------------|
|-8h9-8h9-8h9-8S==|=15h16-15h16-15S==8h9-|
|-----------------|----------------------|
|-----------------|----------------------|
|-----------------|----------------------|
|
| E E E E E E E E    E  E  E  E  E E E E
|-----------------|----------------------|
|-----------------|----------------------|
|-----------------|----------------------|
|-6-6-6-6-6-6-6-6-|--2--2--2--2--2-2-2-2-|
|-6-6-6-6-6-6-6-6-|--2--2--2--2--2-2-2-2-|
|-4-4-4-4-4-4-4-4-|--0--0--0--0--0-0-0-0-|


  E E E E E E Q      E  E  E  E  Q   E E
|-----------------|----------------------|
|-----------------|----------------------|
|-8h9-8h9-8h9-8S==|=15h16-15h16-15S==8h9-|
|-----------------|----------------------|
|-----------------|----------------------|
|-----------------|----------------------|
|
| E E E E E E E E    E  E  E  E  E E E E
|-----------------|----------------------|
|-----------------|----------------------|
|-----------------|----------------------|
|-9-9-9-9-9-9-9-9-|--8--8--8--8--8-8-8-8-|
|-9-9-9-9-9-9-9-9-|--8--8--8--8--8-8-8-8-|
|-7-7-7-7-7-7-7-7-|--6--6--6--6--6-6-6-6-|


  E E E E E E Q      E  E  E  E  Q   E E
|-----------------|----------------------|
|-----------------|----------------------|
|-8h9-8h9-8h9-8S==|=15h16-15h16-15S==8h9-|
|-----------------|----------------------|
|-----------------|----------------------|
|-----------------|----------------------|
|
| E E E E E E E E    E  E  E  E  E E E E
|-----------------|----------------------|
|-----------------|----------------------|
|-----------------|----------------------|
|-6-6-6-6-6-6-6-6-|--2--2--2--2--2-2-2-2-|
|-6-6-6-6-6-6-6-6-|--2--2--2--2--2-2-2-2-|
|-4-4-4-4-4-4-4-4-|--0--0--0--0--0-0-0-0-|


  E E E E E E Q      E  E  E  E  Q   E E
|-----------------|----------------------|
|-----------------|----------------------|
|-8h9-8h9-8h9-8S==|=15h16-15h16-15S==8h9-|
|-----------------|----------------------|
|-----------------|----------------------|
|-----------------|----------------------|
|
| E E E E E E E E    E  E  E  E  E E E E
|-----------------|----------------------|
|-----------------|----------------------|
|-----------------|----------------------|
|-9-9-9-9-9-9-9-9-|--8--8--8--8--8-8-8-8-|
|-9-9-9-9-9-9-9-9-|--8--8--8--8--8-8-8-8-|
|-7-7-7-7-7-7-7-7-|--6--6--6--6--6-6-6-6-|


  E E E E E E Q      E  E  E  E  E  E  +Q
|-----------------|--------------------------|
|-----------------|--------------------------|
|-8h9-8h9-8h9-8S==|=15h16-15h16-15-15-(15)\--|
|-----------------|--------------------------|
|-----------------|--------------------------|
|-----------------|--------------------------|
|
| E E E E E E E E    E  E  E  E  E  E  +Q
|-----------------|--------------------------|
|-----------------|--------------------------|
|-----------------|--------------------------|
|-6-6-6-6-6-6-6-6-|--2--2--2--2--2--2--(2)---|
|-6-6-6-6-6-6-6-6-|--2--2--2--2--2--2--(2)---|
|-4-4-4-4-4-4-4-4-|--0--0--0--0--0--0--(0)---|


  Gtr II
  W          W         W          +W
|----------|---------|----------|--------|
|----------|---------|----------|--------|
|----------|---------|----------|--------|
|-9--------|-8-------|-6--------|-(6)----|
|-9--------|-8-------|-6--------|-(6)----|
|-7--------|-6-------|-4--------|-(4)----|


   E  E  E  E  +E   E  E  E    E  E  E  E  +E   E  E  E
|---------------------------|---------------------------|
|---------------------------|---------------------------|
|-16-16-16-15-(15)-15-------|-16-16-16-15-(15)-15-------|
|---------------------16-16-|---------------------16-16-|
|---------------------------|---------------------------|
|---------------------------|---------------------------|
|
| Gtr II
|  W                           W
|---------------------------|---------------------------|
|---------------------------|---------------------------|
|---------------------------|---------------------------|
|--9------------------------|--8------------------------|
|--9------------------------|--8------------------------|
|--7------------------------|--6------------------------|


   E  E  E  E  +H        E  E  E  E  +H
|---------------------|---------------------|
|---------------------|---------------------|
|-16-15-13------------|-16-15-13------------|
|----------14-(14)----|----------14-(14)----|
|---------------------|---------------------|
|---------------------|---------------------|
|
|  W                     W
|---------------------|---------------------|
|---------------------|---------------------|
|---------------------|---------------------|
|--6------------------|--2------------------|
|--6------------------|--2------------------|
|--4------------------|--0------------------|


   E  E  E  E  +E   E  E  E    E  E  E  E  +E   E  E  E
|---------------------------|---------------------------|
|---------------------------|---------------------------|
|-16-16-16-15-(15)-15-------|-16-16-16-15-(15)-15-------|
|---------------------16-16-|---------------------16-16-|
|---------------------------|---------------------------|
|---------------------------|---------------------------|
|
| Gtr II
|  W                           W
|---------------------------|---------------------------|
|---------------------------|---------------------------|
|---------------------------|---------------------------|
|--9------------------------|--8------------------------|
|--9------------------------|--8------------------------|
|--7------------------------|--6------------------------|


   E  E  E  E  +H        E   E  E  E  +H
|---------------------|----------------------|
|---------------------|----------------------|
|-16-15-13------------|-16--15-13------------|
|----------14-(14)----|-----------14-(14)----|
|---------------------|----------------------|
|---------------------|----------------------|
|
|  W                    +W
|---------------------|----------------------|
|---------------------|----------------------|
|---------------------|----------------------|
|--6------------------|-(6)------------------|
|--6------------------|-(6)------------------|
|--4------------------|-(4)------------------|


   E  E  E  E  +E   E  E  E    E  E  E  E  +E   E  E  E    W           +W
|---------------------------|---------------------------|-----------|---------|
|---------------------------|---------------------------|-----------|---------|
|-16-16-16-15-(15)-15-------|-16-16-16-15-(15)-15-------|-15--------|-(15)----|
|---------------------16-16-|---------------------16-16-|-----------|---------|
|---------------------------|---------------------------|-----------|---------|
|---------------------------|---------------------------|-----------|---------|
|
| Gtr II
|  W                           W                           W           +W
|---------------------------|---------------------------|-----------|---------|
|---------------------------|---------------------------|-----------|---------|
|---------------------------|---------------------------|-----------|---------|
|--9------------------------|--8------------------------|--6--------|--(6)----|
|--9------------------------|--8------------------------|--6--------|--(6)----|
|--7------------------------|--6------------------------|--4--------|--(4)----|


  E E E E E E Q      E  E  E  E  Q   E E
|-----------------|----------------------|
|-----------------|----------------------|
|-8h9-8h9-8h9-8S==|=15h16-15h16-15S==8h9-|
|-----------------|----------------------|
|-----------------|----------------------|
|-----------------|----------------------|
|
| E E E E E E E E    E  E  E  E  E E E E
|-----------------|----------------------|
|-----------------|----------------------|
|-----------------|----------------------|
|-9-9-9-9-9-9-9-9-|--8--8--8--8--8-8-8-8-|
|-9-9-9-9-9-9-9-9-|--8--8--8--8--8-8-8-8-|
|-7-7-7-7-7-7-7-7-|--6--6--6--6--6-6-6-6-|


  E E E E E E Q      E  E  E  E  Q   E E
|-----------------|----------------------|
|-----------------|----------------------|
|-8h9-8h9-8h9-8S==|=15h16-15h16-15S==8h9-|
|-----------------|----------------------|
|-----------------|----------------------|
|-----------------|----------------------|
|
| E E E E E E E E    E  E  E  E  E E E E
|-----------------|----------------------|
|-----------------|----------------------|
|-----------------|----------------------|
|-6-6-6-6-6-6-6-6-|--2--2--2--2--2-2-2-2-|
|-6-6-6-6-6-6-6-6-|--2--2--2--2--2-2-2-2-|
|-4-4-4-4-4-4-4-4-|--0--0--0--0--0-0-0-0-|


  E E E E E E Q      E  E  E  E  Q   E E
|-----------------|----------------------|
|-----------------|----------------------|
|-8h9-8h9-8h9-8S==|=15h16-15h16-15S==8h9-|
|-----------------|----------------------|
|-----------------|----------------------|
|-----------------|----------------------|
|
| E E E E E E E E    E  E  E  E  E E E E
|-----------------|----------------------|
|-----------------|----------------------|
|-----------------|----------------------|
|-9-9-9-9-9-9-9-9-|--8--8--8--8--8-8-8-8-|
|-9-9-9-9-9-9-9-9-|--8--8--8--8--8-8-8-8-|
|-7-7-7-7-7-7-7-7-|--6--6--6--6--6-6-6-6-|


  E E E E E E Q      E  E  E  E  Q   E E
|-----------------|----------------------|
|-----------------|----------------------|
|-8h9-8h9-8h9-8S==|=15h16-15h16-15S==8h9-|
|-----------------|----------------------|
|-----------------|----------------------|
|-----------------|----------------------|
|
| E E E E E E E E    E  E  E  E  E E E E
|-----------------|----------------------|
|-----------------|----------------------|
|-----------------|----------------------|
|-6-6-6-6-6-6-6-6-|--2--2--2--2--2-2-2-2-|
|-6-6-6-6-6-6-6-6-|--2--2--2--2--2-2-2-2-|
|-4-4-4-4-4-4-4-4-|--0--0--0--0--0-0-0-0-|


  E E E E E E Q      E  E  E  E  Q   E E
|-----------------|----------------------|
|-----------------|----------------------|
|-8h9-8h9-8h9-8S==|=15h16-15h16-15S==8h9-|
|-----------------|----------------------|
|-----------------|----------------------|
|-----------------|----------------------|
|
| E E E E E E E E    E  E  E  E  E E E E
|-----------------|----------------------|
|-----------------|----------------------|
|-----------------|----------------------|
|-9-9-9-9-9-9-9-9-|--8--8--8--8--8-8-8-8-|
|-9-9-9-9-9-9-9-9-|--8--8--8--8--8-8-8-8-|
|-7-7-7-7-7-7-7-7-|--6--6--6--6--6-6-6-6-|


  E E E E E E Q      E  E  E  E  Q   E E
|-----------------|----------------------|
|-----------------|----------------------|
|-8h9-8h9-8h9-8S==|=15h16-15h16-15S==8h9-|
|-----------------|----------------------|
|-----------------|----------------------|
|-----------------|----------------------|
|
| E E E E E E E E    E  E  E  E  E E E E
|-----------------|----------------------|
|-----------------|----------------------|
|-----------------|----------------------|
|-6-6-6-6-6-6-6-6-|--2--2--2--2--2-2-2-2-|
|-6-6-6-6-6-6-6-6-|--2--2--2--2--2-2-2-2-|
|-4-4-4-4-4-4-4-4-|--0--0--0--0--0-0-0-0-|


  E E E E E E Q      E  E  E  E  Q   E E
|-----------------|----------------------|
|-----------------|----------------------|
|-8h9-8h9-8h9-8S==|=15h16-15h16-15S==8h9-|
|-----------------|----------------------|
|-----------------|----------------------|
|-----------------|----------------------|
|
| E E E E E E E E    E  E  E  E  E E E E
|-----------------|----------------------|
|-----------------|----------------------|
|-----------------|----------------------|
|-9-9-9-9-9-9-9-9-|--8--8--8--8--8-8-8-8-|
|-9-9-9-9-9-9-9-9-|--8--8--8--8--8-8-8-8-|
|-7-7-7-7-7-7-7-7-|--6--6--6--6--6-6-6-6-|


  E E E E E E Q      E  E  E  E  E  E  +Q
|-----------------|--------------------------|
|-----------------|--------------------------|
|-8h9-8h9-8h9-8S==|=15h16-15h16-15-15-(15)\--|
|-----------------|--------------------------|
|-----------------|--------------------------|
|-----------------|--------------------------|
|
| E E E E E E E E    E  E  E  E  E  E  +Q
|-----------------|--------------------------|
|-----------------|--------------------------|
|-----------------|--------------------------|
|-6-6-6-6-6-6-6-6-|--2--2--2--2--2--2--(2)---|
|-6-6-6-6-6-6-6-6-|--2--2--2--2--2--2--(2)---|
|-4-4-4-4-4-4-4-4-|--0--0--0--0--0--0--(0)---|


  Gtrs I, II Gtr I
  W            W              W               H.         +E.  S   Q   H.
|----------|-------------|--<12>---------|---24---------(24)----|-----------*|
|----------|-<12>--------|-(<12>)--------|-(<12>)------(<12>)---|-----------*|
|----------|-------------|---------------|----------------------|-----------*|
|-9--------|-------------|---------------|--------------------9-|-9\--------*|
|-9--------|-------------|---------------|--------------------9-|-9\--------*|
|-7--------|-------------|---------------|--------------------7-|-7\--------*|



Duration Legend
---------------
W - whole; H - half; Q - quarter; E - 8th; S - 16th; T - 32nd; X - 64th; a - acciaccatura
+ - note tied to previous; . - note dotted; .. - note double dotted
Uncapitalized letters represent notes that are staccato (1/2 duration)
Irregular groupings are notated above the duration line
Duration letters will always appear directly above the note/fret number it represents the
duration for.  Duration letters with no fret number below them represent rests.  Multi-
bar rests are notated in the form Wxn, where n is the number of bars to rest for.  Low
melody durations appear below the staff

Tablature Legend
----------------
 h   - hammer-on
 p   - pull-off
 b   - bend
 pb  - pre-bend
 r   - bend release (if no number after the r, then release immediately)
 /\  - slide into or out of (from/to "nowhere")
 s   - legato slide
 S   - shift slide
 - natural harmonic
[n]  - artificial harmonic
n(n) - tapped harmonic
 ~   - vibrato
 tr  - trill
 T   - tap
 TP  - trem. picking
 PM  - palm muting
\n/  - tremolo bar dip; n = amount to dip
 \n  - tremolo bar down
 n/  - tremolo bar up
/n\  - tremolo bar inverted dip
 =   - hold bend; also acts as connecting device for hammers/pulls
 <> - volume swell (louder/softer)
 x   - on rhythm slash represents muted slash
 o   - on rhythm slash represents single note slash

Misc Legend
-----------
 |  - bar
||  - double bar
||o - repeat start
o|| - repeat end
*|  - double bar (ending)
 :  - bar (freetime)
 $  - Segno
 &  - Coda
Tempo markers -  = BPM(8/16=s8/s16), where s8 = swing 8ths, s16 = swing 16ths

Tap to rate this tab
 
# A B C D E F G H I J K L M N O P Q R S T U V W X Y Z