Song name
# A B C D E F G H I J K L M N O P Q R S T U V W X Y Z

Kill Hannah - Believer tab

My guitar teacher tabbed some of this song for me so it isnt all my own work but it is
only full tab and i think most of it is accurate.  This song is so good live.  And Kill
are some of the nicest people i have met so i hope the song is right.  Have fun!!!!!!

Guitar 1(Dan)

|10-10---------------------------------------------|
|------10-10-12-12------14-14-------10-10-12-12----|
|------------------11-11-------11-11---------------|
|--------------------------------------------------|
|--------------------------------------------------|
|--------------------------------------------------|

Then after you do this a number of times he goes

|10-10------|
|------12-12|
|-----------|
|-----------| do this a few times
|-----------|
|-----------|

During Dan's part, Johnny comes in with

Guitar 2(Johnny)

Pick slide before he starts playing
|----------------------------------------------------|
|----------------------------------------------------|
|4-4-4-4-4-4-4-4-6-6-6-6-6-6-6-6-7-7-7-7-7-7-7-7-----|
|X-X-X-X-X-X-X-X-X-X-X-X-X-X-X-X-X-X-X-X-X-X-X-X-----|
|2-2-2-2-2-2-2-2-4-4-4-4-4-4-4-4-5-5-5-5-5-5-5-5-----|
|----------------------------------------------------|

|---|                      |----------|
|---|                      |----------|
|-9-|                      |-11-------|
|-X-| 8x                 |- X-- |   1-|6x
|-7-|                      |- 9-------|
|---|                      |----------|

|---|                       |---|                        |-----|
|---|                       |---|                        |-----|
|-9-|                       |-7-|4x                    |-6-----|
|_X-| 4x                  |-X-|                        |-X-----|8x
|-7-|                       |-5-|                        |-4---|
|---|                       |---|                        |-----|


then

|----|
|----|
|----|
|9-9-| do this through out Dan's part
|9-9-|
|7-7-|

Guitar 1

He hits these chords over and over again.  Listen to the song to get the timing.
|----|
|----|
|----|
|9-9-|
|9-9-|
|-7-7|

Guitar 1 & 2

|--------|
|--------|
|--------|
|9-7-5~7~| then go back to the chords above and repeat
|9-7-5~7~|
|7-5-3~5~|

after you repeat you go

|----------|
|----------|
|----------|
|5~~~~7~~~|
|5~~~~7~~~|
|3~~~~5~~~|

listen to the song to figure out how many times you play each note.
|---3-------|
|---3-------|
|---0-------| do this and repeat but on the second time switch the last two chords and 
them
|2--0--9--7-| however many times and then move them to the fifth string, keep them in the
|2--0--9--7-| switched order and play them however many times.  Then you go back to the 6th
|0--3--7--5-| string and let the 577 chord ring.  add a pick slide at the end before you
back to the 799 chords

Guitar 2 solo

get more effect if you bend the strings while you play. Dont know how many times you
each note, listen to the song for the timing.
|----------------------15-14-17--17---(he does some weird alt. picking here, end on 17)--|
|----14-15----------17--------------15---------------------------------------------------|
|-16-------------------------------------------------------------------------------------|
|----------16-14-12----------------------------------------------------------------------|
|----------------------------------------------------------------------------------------|
|----------------------------------------------------------------------------------------|

Go back to the 022 part and play. Towards the end of the song Dan comes in with his
part.   Sorry it is kind of confusing, but it is late and i am to lazy to figure out how
times you play each note.  Listen to the song while you play.  It will sound a little 
because of petals but i am pretty sure this is correct.  i will type it out later.
Tap to rate this tab
# A B C D E F G H I J K L M N O P Q R S T U V W X Y Z