Song name
# A B C D E F G H I J K L M N O P Q R S T U V W X Y Z

Kill Hannah - Love You To Death tab

*Pickslide*


Intro:


Guitar one

e|----------------------------------------------------------------------|
B|----------------------------------------------------------------------|
G|----------------------------------------------------------------------|
D|--7777777777777777777777777777777744444444444444440000000000000000----|
A|--7777777777777777777777777777777744444444444444440000000000000000----|
D|--7777777777777777777777777777777744444444444444440000000000000000----|

Guitar two

e|----------------------------------------------------------------------|
B|---15-15-15-15-14-14-14-14-1212121210101010101010101010101010101010---|
G|----------------------------------------------------------------------|
D|---12-12-12-12-11-11-11-11-9-9-9-9-7-7-7-7-7-7-7-7-7-7-7-7-7-7-7-7----|x2
A|----------------------------------------------------------------------|
D|----------------------------------------------------------------------|

Guitar one

e|----------------------------------------------------------------------|
B|----------------------------------------------------------------------|
G|----------------------------------------------------------------------|
D|--7777777777777777777777777777777744444444444444440000000000000000----|
A|--7777777777777777777777777777777744444444444444440000000000000000----|
D|--7777777777777777777777777777777744444444444444440000000000000000----|

Guitar two

e|----------------------------------------------------------------------|
B|---15-15-15-15-14-14-14-14-1212121210101010101010101010101010101010---|
G|----------------------------------------------------------------------|
D|---12-12-12-12-11-11-11-11-9-9-9-9-7-7-7-7-7-7-7-7-7-7-7-7-7-7-7-7----|
A|----------------------------------------------------------------------|
D|----------------------------------------------------------------------|

e|----------------------------------------------------------------------|
B|---15-15-15-15-14-14-14-14-12121212101010101010101010-7----9----10----|
G|----------------------------------------------------------------------|
D|---12-12-12-12-11-11-11-11-9-9-9-9-7-7-7-7-7-7-7-7-7--4----6----7-----|
A|----------------------------------------------------------------------|
D|----------------------------------------------------------------------|

Verse:

e|----------------------------------------------------------------------|
B|----------------------------------------------------------------------|
G|----------------------------------------------------------------------|
D|--7777777777777777777777777777777744444444444444440000000000000000----|
A|--7777777777777777777777777777777744444444444444440000000000000000----|
D|--7777777777777777777777777777777744444444444444440000000000000000----|
pm    ......  ......  ......  ..  ..  ......  ......  ......  ..  ..


e|----------------------------------------------------------------------|
B|----------------------------------------------------------------------|
G|----------------------------------------------------------------------|
D|--7777777777777777777777777777777744444444444444440000000000000000----|
A|--7777777777777777777777777777777744444444444444440000000000000000----|
D|--7777777777777777777777777777777744444444444444440000000000000000----|
pm    ......  ......  ......  ..  ..  ......  ......  ..............

Chorus:


Guitar one

e|----------------------------------------------------------------------|
B|----------------------------------------------------------------------|
G|----------------------------------------------------------------------|
D|--7777777777777777777777777777777744444444444444440000000000000000----|
A|--7777777777777777777777777777777744444444444444440000000000000000----|
D|--7777777777777777777777777777777744444444444444440000000000000000----|


Guitar two

e|----------------------------------------------------------------------|
B|---15-15-15-15-14-14-14-14-1212121210101010101010101010101010101010---|
G|----------------------------------------------------------------------|
D|---12-12-12-12-11-11-11-11-9-9-9-9-7-7-7-7-7-7-7-7-7-7-7-7-7-7-7-7----|x2
A|----------------------------------------------------------------------|
D|----------------------------------------------------------------------|

Guitar one

e|----------------------------------------------------------------------|
B|----------------------------------------------------------------------|
G|----------------------------------------------------------------------|
D|--7777777777777777777777777777777744444444444444440000000000000000----|
A|--7777777777777777777777777777777744444444444444440000000000000000----|
D|--7777777777777777777777777777777744444444444444440000000000000000----|


Guitar two

e|----------------------------------------------------------------------|
B|---15-15-15-15-14-14-14-14-1212121210101010101010101010101010101010---|
G|----------------------------------------------------------------------|
D|---12-12-12-12-11-11-11-11-9-9-9-9-7-7-7-7-7-7-7-7-7-7-7-7-7-7-7-7----|
A|----------------------------------------------------------------------|
D|----------------------------------------------------------------------|


e|----------------------------------------------------------------------|
B|---15-15-15-15-14-14-14-14-12121212101010101010101010-7----9----10----|
G|----------------------------------------------------------------------|
D|---12-12-12-12-11-11-11-11-9-9-9-9-7-7-7-7-7-7-7-7-7--4----6----7-----|
A|----------------------------------------------------------------------|
D|----------------------------------------------------------------------|


Verse:

e|----------------------------------------------------------------------|
B|----------------------------------------------------------------------|
G|----------------------------------------------------------------------|
D|--7777777777777777777777777777777744444444444444440000000000000000----|
A|--7777777777777777777777777777777744444444444444440000000000000000----|
D|--7777777777777777777777777777777744444444444444440000000000000000----|
pm    ......  ......  ......  ..  ..  ......  ......  ......  ..  ..


e|----------------------------------------------------------------------|
B|----------------------------------------------------------------------|
G|----------------------------------------------------------------------|
D|--7777777777777777777777777777777744444444444444440000000000000000----|
A|--7777777777777777777777777777777744444444444444440000000000000000----|
D|--7777777777777777777777777777777744444444444444440000000000000000----|
pm    ......  ......  ......  ..  ..  ......  ......  ..............


Chorus:


Guitar one

e|----------------------------------------------------------------------|
B|----------------------------------------------------------------------|
G|----------------------------------------------------------------------|
D|--7777777777777777777777777777777744444444444444440000000000000000----|
A|--7777777777777777777777777777777744444444444444440000000000000000----|
D|--7777777777777777777777777777777744444444444444440000000000000000----|


Guitar two

e|----------------------------------------------------------------------|
B|---15-15-15-15-14-14-14-14-1212121210101010101010101010101010101010---|
G|----------------------------------------------------------------------|
D|---12-12-12-12-11-11-11-11-9-9-9-9-7-7-7-7-7-7-7-7-7-7-7-7-7-7-7-7----|x2
A|----------------------------------------------------------------------|
D|----------------------------------------------------------------------|

Guitar one

e|----------------------------------------------------------------------|
B|----------------------------------------------------------------------|
G|----------------------------------------------------------------------|
D|--7777777777777777777777777777777744444444444444440000000000000000----|
A|--7777777777777777777777777777777744444444444444440000000000000000----|
D|--7777777777777777777777777777777744444444444444440000000000000000----|


Guitar two

e|----------------------------------------------------------------------|
B|---15-15-15-15-14-14-14-14-1212121210101010101010101010101010101010---|
G|----------------------------------------------------------------------|
D|---12-12-12-12-11-11-11-11-9-9-9-9-7-7-7-7-7-7-7-7-7-7-7-7-7-7-7-7----|
A|----------------------------------------------------------------------|
D|----------------------------------------------------------------------|


e|----------------------------------------------------------------------|
B|---15-15-15-15-14-14-14-14-12121212101010101010101010-7----9----10----|
G|----------------------------------------------------------------------|
D|---12-12-12-12-11-11-11-11-9-9-9-9-7-7-7-7-7-7-7-7-7--4----6----7-----|
A|----------------------------------------------------------------------|
D|----------------------------------------------------------------------|

Bridge:

Guitar one
e|----------------------------------------------------|
B|----------------------------------------------------|
G|----------------------------------------------------|
D|--22---2-22---2-22---2-22---00---0-00---0-00--0-00--|x2
A|--22---2-22---2-22---2-22---00---0-00---0-00--0-00--|
D|--22---2-22---2-22---2-22---00---0-00---0-00--0-00--|

Guitar two
e|-------------------------|
B|--17----10----17----14---|
G|-------------------------|
D|--14----7-----14----11---|
A|-------------------------|
D|-------------------------|
Note: not single notes, strum these and switch between them when guitar one switches
e|-------------------------|
B|--/14-12--/14-12---------|
G|-------------------------|
D|-------------------------|
A|-------------------------|
D|-------------------------|

*pick slide*

Outro:

Guitar one
e|----------------------------------------------------------------------|
B|----------------------------------------------------------------------|
G|----------------------------------------------------------------------|
D|--7777777777777777777777777777777744444444444444440000000000000000----|
A|--7777777777777777777777777777777744444444444444440000000000000000----|
D|--7777777777777777777777777777777744444444444444440000000000000000----|

Guitar two
e|----------------------------------------------------------------------|
B|---15-15-15-15-14-14-14-14-1212121210101010101010101010101010101010---|
G|----------------------------------------------------------------------|
D|---12-12-12-12-11-11-11-11-9-9-9-9-7-7-7-7-7-7-7-7-7-7-7-7-7-7-7-7----|x2
A|----------------------------------------------------------------------|
D|----------------------------------------------------------------------|

Guitar one
e|----------------------------------------------------------------------|
B|----------------------------------------------------------------------|
G|----------------------------------------------------------------------|
D|--7777777777777777777777777777777744444444444444440000000000000000----|
A|--7777777777777777777777777777777744444444444444440000000000000000----|
D|--7777777777777777777777777777777744444444444444440000000000000000----|


Guitar two
e|----------------------------------------------------------------------|
B|---15-15-15-15-14-14-14-14-1212121210101010101010101010101010101010---|
G|----------------------------------------------------------------------|
D|---12-12-12-12-11-11-11-11-9-9-9-9-7-7-7-7-7-7-7-7-7-7-7-7-7-7-7-7----|
A|----------------------------------------------------------------------|
D|----------------------------------------------------------------------|


e|----------------------------------------------------------------------|
B|---15-15-15-15-14-14-14-14-1212121210101010101010101010101010101010---|
G|----------------------------------------------------------------------|
D|---12-12-12-12-11-11-11-11-9-9-9-9-7-7-7-7-7-7-7-7-7-7-7-7-7-7-7-7----|
A|----------------------------------------------------------------------|
D|----------------------------------------------------------------------|

e|----------|
B|----------|
G|----------|
D|-----7~---|
A|-----7~---|
D|-----7~---|

 
Tap to rate this tab
 
# A B C D E F G H I J K L M N O P Q R S T U V W X Y Z