Song name
# A B C D E F G H I J K L M N O P Q R S T U V W X Y Z

Kill Hannah - Raining All The Time Acoustic tab

Help us improve GuitareTab! Take a short survey!
-------------------------------------------
RAINING ALL THE TIME ACOUSTIC - KILL HANNAH
-------------------------------------------

Tabbed by: Johnsen
Email: Johannesberchtold@gmx.at
Tuning: Standard


This is how i play the song acoustic...

Inro: 

e|--------------------------| 
B|--------------3333--------| play this 2 times
G|--4444--------2222--2222--| (mute it)
D|--4444--5555--0000--2222--| 
A|--2222--5555--------0000--|
E|--------3333--------------|

e|--000-00-000-00-000-00-000-00--| 
B|--000-00-000-00-333-33-222-22--| play this 2 times
G|--444-44-000-00-222-22-222-22--| 
D|--444-44-555-55-000-00-222-22--| 
A|--222-22-555-55-000-00-000-00--|
E|---------333-33----------------|

e|--000-22-00-000-000-00-00-000-000-22-00-000-000-00-00-000-| 
B|--000-22-00-000-000-00-00-000-333-33-33-333-222-22-22-222-| 
G|--444-44-44-444-000-00-00-000-222-22-22-222-222-22-22-222-| 
D|--444-44-44-444-555-55-55-555-000-00-00-000-222-22-22-222-| 
A|--222-22-22-222-555-55-55-555-000-00-00-000-000-00-00-000-|
E|----------------333-33-33-333-----------------------------|

e|--000-22-00-000-000-00-00-000-000-22-00-000-0-| 
B|--000-22-00-000-000-00-00-000-333-33-33-333-1-| 
G|--444-44-44-444-000-00-00-000-222-22-22-222-0-| 
D|--444-44-44-444-555-55-55-555-000-00-00-000-2-| 
A|--222-22-22-222-555-55-55-555-000-00-00-000-3-|
E|----------------333-33-33-333-----------------|


Verse 1:

e|----------------------------------------------| 
B|--3-------------------------------------------| 
G|--4-------------------------------------------| 
D|--4-------------------------------------------| 
A|--2-------------------------------------------|
E|----------------------------------------------|
        She fell like a meteor onto the planet

e|-----------------2----------------0---------0-----| 
B|--3--------------3----------------0---------3p0---| 
G|--4--------------4----------------2---------0-----| 
D|--4--------------4----------------2---------0-----| 
A|--2--------------2----------------0---------2-----|
E|--------------------------------------------------|
	And said, "Your world, it brings me down

e|--------------------------------------------------------| 
B|-xxx-3--------------------------------------------------| 
G|-xxx-4--------------------------------------------------| 
D|-xxx-4--------------------------------------------------| 
A|-xxx-2--------------------------------------------------|
E|--------------------------------------------------------|
	I feel like an animal. And I don't think I get it

e|------2----------------0-------3-----| 
B|--3---3----------------0-------0-----| 
G|--4---4----------------2-------0-----| 
D|--4---4----------------2-------0-----| 
A|--2---2----------------0-------2-----|
E|-------------------------------------|
   But one day I'll make you proud"


Chorus:

e|-----------------------------------------------------------------------------------| 
B|-----------------------------------------------------3-----------------------------| 
G|--4--------------------------------------------------2--------------------------2--| 
D|--4----------------------5---------------------------0--------------------------2--| 
A|--2----------------------5------------------------------------------------------0--|
E|-------------------------3---------------------------------------------------------|
      It's raining all the time. It's raining all the time. It's raining all the time
      I'll need you by my side   When I leave it all behind It's raining all the time


Verse 2:

e|------------------------------------------------------------------| 
B|--3---------------------------------------------------------------| 
G|--4---------------------------------------------------------------| 
D|--4---------------------------------------------------------------| 
A|--2---------------------------------------------------------------|
E|------------------------------------------------------------------|
     She crashed like an atom bomb. And said, "We can't live forever

e|-------------2------------0---------0-----| 
B|-------------3------------0---------3p0---| 
G|-------------4------------2---------0-----| 
D|-------------4------------2---------0-----| 
A|-------------2------------0---------2-----|
E|------------------------------------------|
	       One day I'll see you around

e|--------------------------------------------------------| 
B|-xxx-3--------------------------------------------------| 
G|-xxx-4--------------------------------------------------| 
D|-xxx-4--------------------------------------------------| 
A|-xxx-2--------------------------------------------------|
E|--------------------------------------------------------|
	I dremt that we disappeared. So I just gotta do it

e|------2------------0-------3-----| 
B|--3---3------------0-------0-----| 
G|--4---4------------2-------0-----| 
D|--4---4------------2-------0-----| 
A|--2---2------------0-------2-----|
E|---------------------------------|
    So no one can touch me now"


Chorus:

e|-----------------------------------------------------------------------------------| 
B|-----------------------------------------------------3-----------------------------|
G|--4--------------------------------------------------2--------------------------2--| 
D|--4----------------------5---------------------------0--------------------------2--| 
A|--2----------------------5------------------------------------------------------0--|
E|-------------------------3---------------------------------------------------------|
      It's raining all the time. It's raining all the time. It's raining all the time
      I'll need you by my side   When I leave it all behind It's raining all the time


Bridge:

e|-------------------------------------------------| 
B|-------------------------------------------------| 
G|--x----x-----4------------------------------6-7--| 
D|--x----x-----4------------------------------6-7--| 
A|--x----x-----2------------------------------4-5--|
E|-------------------------------------------------|
   She said: I hate the rain (hate the rain)

e|---------| 
B|---------| 
G|--x---7--| 
D|--x---7--|  (hit it only once and let it ring)
A|--x---5--|
E|---------|
   But here it comes again

e|-------------------------------------------------| 
B|-------------------------------------------------| 
G|--x----x-----4------------------------------6-7--| 
D|--x----x-----4------------------------------6-7--| 
A|--x----x-----2------------------------------4-5--|
E|-------------------------------------------------|
   She said: I hate the rain (hate the rain)

e|---------| 
B|---------| 
G|--x---7--| 
D|--x---7--|  (hit it only once and let it ring)
A|--x---5--|
E|---------|
   But here it comes again

e|-------------------------------------------| \
B|-------------------------------------------|  \
G|-------4------------------------------6-7--|   \
D|-------4------------------------------6-7--|    \
A|-------2------------------------------4-5--|     \
E|-------------------------------------------|      \
	I hate the rain (hate the rain)               Play this 2 times
        					    /
e|------------------------------------------|      /
B|------------------------------------------|     /
G|-------7------------------------------6---|    /
D|-------7------------------------------6---|   /
A|-------5------------------------------4---|  /
E|------------------------------------------| /
	Here it comes again


Breakdown:
e|-2------------------------2--| 
B|-3------------------------3--| 
G|-2------------------------0--| 
D|--------------------------0--|  (hit the chords it only 
A|--------------------------2--|   once and let them ring)
E|-----------------------------|
   There's something in my head
   
e|--------------------------------------------------------------------| 
B|--------------------------------------------------------------------| 
G|-------------------4------------------------------------------------| 
D|-------------------4--------------------------------5---------------|  (hit it only once
A|-------------------2--------------------------------5---------------|  and let it ring)
E|----------------------------------------------------3---------------|
I can't get off my mind since you've been gone it's raing all the time...


Related for Raining All The Time Acoustic tab