Song name
# A B C D E F G H I J K L M N O P Q R S T U V W X Y Z

Kill Hannah - Living In Misery tab

-------------------------------------------------------------------------------
			     Living In Misery – Kill Hannah
-------------------------------------------------------------------------------
Tabbed by: AznCaleb
Email: calebllamos@gmail.com

Tuning: Standard

Hey this is my first tab ever lol and I am still pretty new at guitar (about 3 months).
was listening to this song from Kill Hannah’s album “Wake Up the Sleepers”. This is not
acoustic guitar, this is the electric. Im going to divide this song up into each little 
of the riff so you know where Im at, hope that doesn’t bug anybody :b

The little riff at the beginning is
(0:09)
e|-5-5---12-12---9-----------------------------------------------------------|
B|---------------------------------------------------------------------------|
G|---------------------------------------------------------------------------|
D|---------------------------------------------------------------------------|
A|---------------------------------------------------------------------------|
E|---------------------------------------------------------------------------|

Now, you could play it with single notes,  but I made up some chords to make it sound
Just a suggestion. I’ll put the same time in the song but with a “C” for the chorded
I made up.

(0:15)
e|-5-5-5---7--5-4-----5-5-4----5-5-4-----------------------------------------|
B|----------------5---------5--------5---------------------------------------|
G|---------------------------------------------------------------------------|
D|---------------------------------------------------------------------------|
A|---------------------------------------------------------------------------|
E|---------------------------------------------------------------------------|

!C! (0:15) !C!
e|-5-5-5---7--5-4-----5-5-4----5-5-4-----------------------------------------|
B|-7-7-7---7--5-5-5---5-5-5-5--5-5-5-5---------------------------------------|
G|-6-6-6---6--4-4-4---4-4-4-4--4-4-4-4---------------------------------------|
D|----------------0---------0--------0---------------------------------------|
A|---------------------------------------------------------------------------|
E|---------------------------------------------------------------------------|

(0:22)
e|-5-5-5---7--5-4----5-5-12-—5/7----5----------------------------------------|
B|----------------5----------------------------------------------------------|
G|---------------------------------------------------------------------------|
D|---------------------------------------------------------------------------|
A|---------------------------------------------------------------------------|
E|---------------------------------------------------------------------------|

!C! (0:22) !C!
e|-5-5-5---7--5-4----5-5-12—-5-7----5----------------------------------------|
B|-7-7-7---7--5-5-5--7-7-10--7-7----5----------------------------------------|
G|-6-6-6---6--4-4-4--7-7-11--6-7----6----------------------------------------|
D|----------------0----------------------------------------------------------|
A|---------------------------------------------------------------------------|
E|---------------------------------------------------------------------------|
 (1:00-1:25)
e|-5-5-5---7--5-4-----5-5-4----5-5-4-----------------------------------------|
B|----------------5---------5--------5---------------------------------------|
G|---------------------------------------------------------------------------|
D|---------------------------------------------------------------------------|
A|---------------------------------------------------------------------------|
E|---------------------------------------------------------------------------|

e|-5-5-5---7--5-4----5-5-12-—5--7--9----5-5-12--5--7--5----------------------|
B|----------------5----------------------------------------------------------|
G|---------------------------------------------------------------------------|
D|---------------------------------------------------------------------------|
A|---------------------------------------------------------------------------|
E|---------------------------------------------------------------------------|

!C! (1:00-1:25) !C!
e|-5-5-5---7--5-4-----5-5-4----5-5-4-----------------------------------------|
B|-7-7-7---7--5-5-5---5-5-5-5--5-5-5-5---------------------------------------|
G|-6-6-6---6--4-4-4---4-4-4-4--4-4-4-4---------------------------------------|
D|----------------0---------0--------0---------------------------------------|
A|---------------------------------------------------------------------------|
E|---------------------------------------------------------------------------|

e|-5-5-5---7--5-4----5-5-12—-5--7--9----5-5-12--5--7--5----------------------|
B|-7-7-7---7--5-5-5--7-7-10--7--7--10---7-7-10--7--7--5----------------------|
G|-6-6-6---6--4-4-4--7-7-11--6--7--11---7-7-11--6--7--6----------------------|
D|----------------0----------------------------------------------------------|
A|---------------------------------------------------------------------------|
E|---------------------------------------------------------------------------|

It just repeats the pattern at (1:00)to(1:25) so I’ll just post for the other times too.
can play the pattern during the chorus-singing if you so desire.

(1:57-2:28)
e|-5-5-5---7--5-4-----5-5-4----5-5-4-----------------------------------------|
B|----------------5---------5--------5---------------------------------------|
G|---------------------------------------------------------------------------|
D|---------------------------------------------------------------------------|
A|---------------------------------------------------------------------------|
E|---------------------------------------------------------------------------|

e|-5-5-5---7--5-4----5-5-12-—5--7--9----5-5-12--5--7--5----------------------|
B|----------------5----------------------------------------------------------|
G|---------------------------------------------------------------------------|
D|---------------------------------------------------------------------------|
A|---------------------------------------------------------------------------|
E|---------------------------------------------------------------------------|

!C! (1:57-2:28) !C!
e|-5-5-5---7--5-4-----5-5-4----5-5-4-----------------------------------------|
B|-7-7-7---7--5-5-5---5-5-5-5--5-5-5-5---------------------------------------|
G|-6-6-6---6--4-4-4---4-4-4-4--4-4-4-4---------------------------------------|
D|----------------0---------0--------0---------------------------------------|
A|---------------------------------------------------------------------------|
E|---------------------------------------------------------------------------|

e|-5-5-5---7--5-4----5-5-12—-5--7--9----5-5-12--5--7--10---5-5-12--5--7--5---|
B|-7-7-7---7--5-5-5--7-7-10--7--7--10---7-7-10--7--7--10---7-7-10--7--7--5---|
G|-6-6-6---6--4-4-4--7-7-11--6--7--11---7-7-11--6--7--11---7-7-11--6--7--6---|
D|----------------0----------------------------------------------------------|
A|---------------------------------------------------------------------------|
E|---------------------------------------------------------------------------|
				    Or you can use a 9 up there ^ whatever sounds better
Im not sure what the chords are after that from (2:34-3:05), but you can play the above
during the chorus-singing if you want.

Hope that helps.

************************************

| /   slide up
| \   slide down
| h   hammer-on
| p   pull-off
| ~   vibrato
| +   harmonic
| x   Mute note
| b   Bend
| pb  Pre-bend
| br  Bend release
| pbr Pre-bend release
| brb Bend release bend

************************************
Tap to rate this tab
# A B C D E F G H I J K L M N O P Q R S T U V W X Y Z