Song name
# A B C D E F G H I J K L M N O P Q R S T U V W X Y Z

Kill Hannah - Raining All The Time tab

Raining all the time
Kill Hannah
For never and ever


This is just the lead guitar.
check out the song layout at the bottom.

-----------INTRO----------


e|-----------------------------------------------------------------------------------|
b|--7-7-7-7-7-7-7-7-7-7-7-7-7-7-7-7-7-7-7-----------10-10-10-10----------------------|
g|-------------------7-7-7-7-7-7-7-7-7-----------7-7-7-7--------------------9-9-9-9--|
d|-----------------------------------------------------------------------------------|
a|-----------------------------------------------------------------------------------|
d|-----------------------------------------------------------------------------------|


e|---------------------------------------------------------------------------------------------------|
b|---7-7-7-7-7-----------10-10-10-10-----------------------------------------------------------------|
g|----------------7-7-7-7--------------------9-9-9-9-----------------------------------------|  x 2--|
d|---------------------------------------------------------------------------------------------------|
a|---------------------------------------------------------------------------------------------------|
d|---------------------------------------------------------------------------------------------------|

e|-------------------------------------------------|
b|---7-7-7-7-7-----------10-10-10-10---------------|
g|----------------7-7-7-7--------------------9--9--|
d|-------------------------------------------------|
a|-------------------------------------------------|
d|-------------------------------------------------|

e|----------------------------------------------------|
b|---7-7-7-7-7-----------10-10-10-10------------------|
g|----------------7-7-7-7--------------------9-9-9-9--|
d|----------------------------------------------------|
a|----------------------------------------------------|
d|----------------------------------------------------|

e|-----------------------------------------------------------------------15(16)-----15(16)--|
b|---7-7-7-7-7-----------10-10-10-10---14-14-14-14-12-----------12--------------------------|
g|----------------7-7-7-7-------------------------------------------------------------------|
d|------------------------------------------------------------------------------------------|
a|------------------------------------------------------------------------------------------|
d|------------------------------------------------------------------------------------------|

e|----------15-------18(20)-----18(20)---------------------|
b|-----15-------15-----------15------------14-14-15(hold)--|
g|---------------------------------------------------------|
d|---------------------------------------------------------|
a|---------------------------------------------------------|
d|---------------------------------------------------------|


--------VERSE--------

e|-----------|
b|-15(hold)--|
g|-----------|
d|-----------|
a|-----------|
d|-----------|

for this part, just mess around with the amplifer whilst holding 15, volume up and down, 
some mild whammy

stuff.

e|--------11--------------10---------------|
b|-------------12-------------10-----------|
g|----11----------11-9----------9-7(hold)--|
d|-----------------------------------------|
a|-----------------------------------------|
d|-----------------------------------------|


--------CHORUS--------

e|---------------------------------------------------------------------------------------------------|
b|---7-7-7-7-7-----------10-10-10-10-----------------------------------------------------------------|
g|----------------7-7-7-7--------------------9-9-9-9-----------------------------------------|  x 3--|
d|---------------------------------------------------------------------------------------------------|
a|---------------------------------------------------------------------------------------------------|
d|---------------------------------------------------------------------------------------------------|

e|-------------------------------------------------|
b|---7-7-7-7-7-----------10-10-10-10---------------|
g|----------------7-7-7-7--------------------9--9--|
d|-------------------------------------------------|
a|-------------------------------------------------|
d|-------------------------------------------------|

e|----------------------------------------------------|
b|---7-7-7-7-7-----------10-10-10-10------------------|
g|----------------7-7-7-7--------------------9-9-9-9--|
d|----------------------------------------------------|
a|----------------------------------------------------|
d|----------------------------------------------------|

e|-----------------------------------------------------------------------15(16)-----15(16)--|
b|---7-7-7-7-7-----------10-10-10-10---14-14-14-14-12-----------12--------------------------|
g|----------------7-7-7-7-------------------------------------------------------------------|
d|------------------------------------------------------------------------------------------|
a|------------------------------------------------------------------------------------------|
d|------------------------------------------------------------------------------------------|

e|----------15-------18(20)-----18(20)---------------------|
b|-----15-------15-----------15------------14-14-15(hold)--|
g|---------------------------------------------------------|
d|---------------------------------------------------------|
a|---------------------------------------------------------|
d|---------------------------------------------------------|


-------INTERLUDE------

This is the part where he sings "i hate the rain, here it comes again!".
its not really any particular notes, just random bends, il put down the notes he uses,
just mess about with them, it doesnt really matter coz it isnt really that loud
e|----------------- ---15(16)--18(20)--------------|
b|------------15(16)-----------------------12--14--|
g|-------------------------------------------------|
d|-------------------------------------------------|
a|-------------------------------------------------|
d|-------------------------------------------------|

e|---------------------------------------------------------------------------------------------------|
b|---7-7-7-7-7-----------10-10-10-10-----------------------------------------------------------------|
g|----------------7-7-7-7--------------------9-9-9-9-----------------------------------------|  x 8--|
d|---------------------------------------------------------------------------------------------------|
a|---------------------------------------------------------------------------------------------------|
d|---------------------------------------------------------------------------------------------------|


----OUTRO-----

e|---------------------------------------------------------------------------------------------------|
b|---7-7-7-7-7-----------10-10-10-10-----------------------------------------------------------------|
g|----------------7-7-7-7--------------------9-9-9-9-----------------------------------------|  x 4--|
d|---------------------------------------------------------------------------------------------------|
a|---------------------------------------------------------------------------------------------------|
d|---------------------------------------------------------------------------------------------------|

e|--------|
b|--------|
g|-----7--|
d|-----7--|
a|-----5--|
d|--------|



Layout of song:
Intro
Verse
Chorus
Verse
Chorus
Interlude
Outro


im pretty sure this is completely correct, have fun.
any problems... www.myspace.com/fr3ddi30

ty
Tap to rate this tab
 
# A B C D E F G H I J K L M N O P Q R S T U V W X Y Z