Song name
# A B C D E F G H I J K L M N O P Q R S T U V W X Y Z

Kill Hannah - 10 More Min With You tab

Here's what I figured out to be the beginning.
Thought it sounded pretty cool so check it out.
If you have a problem with it post another tab cuz
I don't think I have an E=mail address atm lol. ^^
KILL HANNA RULES!!!
Please rate. :)


e)--15----15----15----17----17----17----|
B)----15----15----15----15----15----15--|
G)------14----14----------14----14------|
D)--------------------------------------|
A)--------------------------------------|
E)--------------------------------------|


e)--13----13----13----15----15----15----|
B)----13----13----13----15----15----15--|
G)------12----12----------14----14------|
D)--------------------------------------|
A)--------------------------------------|
E)--------------------------------------|


e)--15----15----15----17----17----17----|
B)----15----15----15----15----15----15--|
G)------14----14----------14----14------|
D)--------------------------------------|
A)--------------------------------------|
E)--------------------------------------|


e)--13----13----13----------------------------------------------|
B)----13----13----13--15--15-15-15--15-15--15--15--15-15-15-15--|
G)------12----12------------------------------------------------|
D)--------------------------------------------------------------|
A)--------------------------------------------------------------|
E)--------------------------------------------------------------|

e)--15----15----15----17----17----17----|
B)----15----15----15----15----15----15--|
G)------14----14----------14----14------|
D)--------------------------------------|
A)--------------------------------------|
E)--------------------------------------|


e)--13----13----13----15----15----15----|
B)----13----13----13----15----15----15--|
G)------12----12----------14----14------|
D)--------------------------------------|
A)--------------------------------------|
E)--------------------------------------|


e)--15----15----15----17----17----17----13----13---13----|
B)----15----15----15----15----15----15----13----13---13--|
G)------14----14----------14----14----------12----12-----|
D)-------------------------------------------------------|
A)-------------------------------------------------------|
E)-------------------------------------------------------|


e)--15-15-15--13-13-13--10-10-10--8-8-8/10--|
B)--15-15-15--13-13-13--10-10-10--8-8-8/10--|
G)------------------------------------------|
D)------------------------------------------|
A)------------------------------------------|
E)------------------------------------------|
Tap to rate this tab
# A B C D E F G H I J K L M N O P Q R S T U V W X Y Z