Song name
# A B C D E F G H I J K L M N O P Q R S T U V W X Y Z

Kill Hannah - Is Anyone Here Alive tab

VERSE:

eb|------------------------------------------------------------------------|
Bb|------------------------------------------------------------------------|
Gb|------------6-6-6-----6-6-6----2-2-2-----2-2-2--4-44--------------------|
Db|------------6-6-6-----6-6-6----2-2-2-----2-2-2--4-44--------------------|
Ab|-PICKSLIDE--4-4-4-----4-4-4----0-0-0-----0-0-0--2-22--------------------|
Db|-PICKSLIDE--------------------------------------------------------------|

eb|--------------------------------------------------------------|
Bb|--------------------------------------------------------------|
Gb|--6-6-6-----6-6-6----2-2-2-----2-2-2--4-44--------------------|
Db|--6-6-6-----6-6-6----2-2-2-----2-2-2--4-44--------------------|
Ab|--4-4-4-----4-4-4----0-0-0-----0-0-0--2-22--------------------|
Db|--------------------------------------------------------------|


eb|--------------------------------------------------------------|
Bb|--------------------------------------------------------------|
Gb|--6-6-6-----6-6-6----4-4-4-4-4-4-4-4-4-4-4-4-4-4--------------|
Db|--6-6-6-----6-6-6----4-4-4-4-4-4-4-4-4-4-4-4-4-4--------------|
Ab|--4-4-4-----4-4-4----2-2-2-2-2-2-2-2-2-2-2-2-2-2--------------|
Db|--------------------------------------------------------------|
PM.                     . . . . . . . . . . . . . .

CHORUS:
eb|-----------------------------------------------------------------|
Bb|-----------------------------------------------------------------|
Gb|---------------------------------4-4-4-4-4-4-4-4-4-4-4-4-4-6-6-6-|
Db|-2-2-2-2-2-2-2-2-2-2-2-2-2-2-2-2-4-4-4-4-4-4-4-4-4-4-4-4-4-6-6-6-|
Ab|-2-2-2-2-2-2-2-2-2-2-2-2-2-2-2-2-2-2-2-2-2-2-2-2-2-2-2-2-2-4-4-4-|
Db|-2-2-2-2-2-2-2-2-2-2-2-2-2-2-2-2---------------------------------|

eb|-----------------------------------------------------------------|
Bb|-----------------------------------------------------------------|
Gb|---------------------------------2-2-2-2-2-2-2-2-2-2-2-2-2-2-2-2-|
Db|-0-0-0-0-0-0-0-0-0-0-0-0-0-0-0-0-2-2-2-2-2-2-2-2-2-2-2-2-2-2-2-2-|
Ab|-0-0-0-0-0-0-0-0-0-0-0-0-0-0-0-0-0-0-0-0-0-0-0-0-0-0-0-0-0-0-0-0-|
Db|-0-0-0-0-0-0-0-0-0-0-0-0-0-0-0-0---------------------------------|

eb|-----------------------------------------------------------------|
Bb|-----------------------------------------------------------------|
Gb|---------------------------------4-4-4-4-4-4-4-4-4-4-4-4-4-6-6-6-|
Db|-2-2-2-2-2-2-2-2-2-2-2-2-2-2-2-2-4-4-4-4-4-4-4-4-4-4-4-4-4-6-6-6-|
Ab|-2-2-2-2-2-2-2-2-2-2-2-2-2-2-2-2-2-2-2-2-2-2-2-2-2-2-2-2-2-4-4-4-|
Db|-2-2-2-2-2-2-2-2-2-2-2-2-2-2-2-2---------------------------------|

eb|-----------------------------------------------------------------|
Bb|-----------------------------------------------------------------|
Gb|---------------------------------2-2-2-2-2-2-2-2-2-2-2-2-2-2-2-2-|
Db|-0-0-0-0-0-0-0-0-0-0-0-0-0-0-0-0-2-2-2-2-2-2-2-2-2-2-2-2-2-2-2-2-|
Ab|-0-0-0-0-0-0-0-0-0-0-0-0-0-0-0-0-0-0-0-0-0-0-0-0-0-0-0-0-0-0-0-0-|
Db|-0-0-0-0-0-0-0-0-0-0-0-0-0-0-0-0---------------------------------|

VERSE:
eb|------------------------------------------------------------------------|
Bb|------------------------------------------------------------------------|
Gb|------------6-6-6-----6-6-6----2-2-2-----2-2-2--4-44--------------------|
Db|------------6-6-6-----6-6-6----2-2-2-----2-2-2--4-44--------------------|
Ab|-PICKSLIDE--4-4-4-----4-4-4----0-0-0-----0-0-0--2-22--------------------|
Db|-PICKSLIDE--------------------------------------------------------------|

eb|--------------------------------------------------------------|
Bb|--------------------------------------------------------------|
Gb|--6-6-6-----6-6-6----2-2-2-----2-2-2--4-44--------------------|
Db|--6-6-6-----6-6-6----2-2-2-----2-2-2--4-44--------------------|
Ab|--4-4-4-----4-4-4----0-0-0-----0-0-0--2-22--------------------|
Db|--------------------------------------------------------------|

eb|--------------------------------------------------------------|
Bb|--------------------------------------------------------------|
Gb|--6-6-6-----6-6-6----4-4-4-4-4-4-4-4-4-4-4-4-4-4--------------|
Db|--6-6-6-----6-6-6----4-4-4-4-4-4-4-4-4-4-4-4-4-4--------------|
Ab|--4-4-4-----4-4-4----2-2-2-2-2-2-2-2-2-2-2-2-2-2--------------|
Db|--------------------------------------------------------------|
PM.                     . . . . . . . . . . . . . .

CHORUS:
eb|-----------------------------------------------------------------|
Bb|-----------------------------------------------------------------|
Gb|---------------------------------4-4-4-4-4-4-4-4-4-4-4-4-4-6-6-6-|
Db|-2-2-2-2-2-2-2-2-2-2-2-2-2-2-2-2-4-4-4-4-4-4-4-4-4-4-4-4-4-6-6-6-|
Ab|-2-2-2-2-2-2-2-2-2-2-2-2-2-2-2-2-2-2-2-2-2-2-2-2-2-2-2-2-2-4-4-4-|
Db|-2-2-2-2-2-2-2-2-2-2-2-2-2-2-2-2---------------------------------|

eb|-----------------------------------------------------------------|
Bb|-----------------------------------------------------------------|
Gb|---------------------------------2-2-2-2-2-2-2-2-2-2-2-2-2-2-2-2-|
Db|-0-0-0-0-0-0-0-0-0-0-0-0-0-0-0-0-2-2-2-2-2-2-2-2-2-2-2-2-2-2-2-2-|
Ab|-0-0-0-0-0-0-0-0-0-0-0-0-0-0-0-0-0-0-0-0-0-0-0-0-0-0-0-0-0-0-0-0-|
Db|-0-0-0-0-0-0-0-0-0-0-0-0-0-0-0-0---------------------------------|

eb|-----------------------------------------------------------------|
Bb|-----------------------------------------------------------------|
Gb|---------------------------------4-4-4-4-4-4-4-4-4-4-4-4-4-6-6-6-|
Db|-2-2-2-2-2-2-2-2-2-2-2-2-2-2-2-2-4-4-4-4-4-4-4-4-4-4-4-4-4-6-6-6-|
Ab|-2-2-2-2-2-2-2-2-2-2-2-2-2-2-2-2-2-2-2-2-2-2-2-2-2-2-2-2-2-4-4-4-|
Db|-2-2-2-2-2-2-2-2-2-2-2-2-2-2-2-2---------------------------------|

eb|-----------------------------------------------------------------|
Bb|-----------------------------------------------------------------|
Gb|---------------------------------2-2-2-2-2-2-2-2-2-2-2-2-2-2-2-2-|
Db|-0-0-0-0-0-0-0-0-0-0-0-0-0-0-0-0-2-2-2-2-2-2-2-2-2-2-2-2-2-2-2-2-|
Ab|-0-0-0-0-0-0-0-0-0-0-0-0-0-0-0-0-0-0-0-0-0-0-0-0-0-0-0-0-0-0-0-0-|
Db|-0-0-0-0-0-0-0-0-0-0-0-0-0-0-0-0---------------------------------|

BRIDGE:

Clean
eb|-------------------------------------------------------------------|
Bb|-------------------------------------------------------------------|
Gb|--6-6-6-6-6-6-6-6-4-4-4-4-4-4-4-4----------------------------------|
Db|--6-6-6-6-6-6-6-6-4-4-4-4-4-4-4-4-2-2-2-2-2-2-2-2-2-2-2-2-2-2-2-2--|
Ab|--4-4-4-4-4-4-4-4-2-2-2-2-2-2-2-2-2-2-2-2-2-2-2-2-2-2-2-2-2-2-2-2--|x3
Db|----------------------------------2-2-2-2-2-2-2-2-2-2-2-2-2-2-2-2--|

distorted
eb|-------------------------------------------------------------------|
Bb|-------------------------------------------------------------------|
Gb|--2-2-2-----------2-2-2-----------2-2-2-2-2-2-2-2-4-4-4-4-4-4-4-4--|
Db|--2-2-2-----------2-2-2-----------2-2-2-2-2-2-2-2-4-4-4-4-4-4-4-4--|
Ab|--0-0-0-----------0-0-0-----------0-0-0-0-0-0-0-0-2-2-2-2-2-2-2-2--|
Db|-------------------------------------------------------------------|

SOLO:
eb|-----------------------------------------------------------------|
Bb|-----------------------------------------------------------------|
Gb|---------------------------------4-4-4-4-4-4-4-4-4-4-4-4-4-6-6-6-|
Db|-2-2-2-2-2-2-2-2-2-2-2-2-2-2-2-2-4-4-4-4-4-4-4-4-4-4-4-4-4-6-6-6-|
Ab|-2-2-2-2-2-2-2-2-2-2-2-2-2-2-2-2-2-2-2-2-2-2-2-2-2-2-2-2-2-4-4-4-|
Db|-2-2-2-2-2-2-2-2-2-2-2-2-2-2-2-2---------------------------------|

eb|-----------------------------------------------------------------|
Bb|-----------------------------------------------------------------|
Gb|---------------------------------2-2-2-2-2-2-2-2-2-2-2-2-2-2-2-2-|
Db|-0-0-0-0-0-0-0-0-0-0-0-0-0-0-0-0-2-2-2-2-2-2-2-2-2-2-2-2-2-2-2-2-|
Ab|-0-0-0-0-0-0-0-0-0-0-0-0-0-0-0-0-0-0-0-0-0-0-0-0-0-0-0-0-0-0-0-0-|
Db|-0-0-0-0-0-0-0-0-0-0-0-0-0-0-0-0---------------------------------|

CHORUS:
eb|-----------------------------------------------------------------|
Bb|-----------------------------------------------------------------|
Gb|---------------------------------4-4-4-4-4-4-4-4-4-4-4-4-4-6-6-6-|
Db|-2-2-2-2-2-2-2-2-2-2-2-2-2-2-2-2-4-4-4-4-4-4-4-4-4-4-4-4-4-6-6-6-|
Ab|-2-2-2-2-2-2-2-2-2-2-2-2-2-2-2-2-2-2-2-2-2-2-2-2-2-2-2-2-2-4-4-4-|
Db|-2-2-2-2-2-2-2-2-2-2-2-2-2-2-2-2---------------------------------|

eb|-----------------------------------------------------------------|
Bb|-----------------------------------------------------------------|
Gb|---------------------------------2-2-2-2-2-2-2-2-2-2-2-2-2-2-2-2-|
Db|-0-0-0-0-0-0-0-0-0-0-0-0-0-0-0-0-2-2-2-2-2-2-2-2-2-2-2-2-2-2-2-2-|
Ab|-0-0-0-0-0-0-0-0-0-0-0-0-0-0-0-0-0-0-0-0-0-0-0-0-0-0-0-0-0-0-0-0-|
Db|-0-0-0-0-0-0-0-0-0-0-0-0-0-0-0-0---------------------------------|

eb|-----------------------------------------------------------------|
Bb|-----------------------------------------------------------------|
Gb|---------------------------------4-4-4-4-4-4-4-4-4-4-4-4-4-6-6-6-|
Db|-2-2-2-2-2-2-2-2-2-2-2-2-2-2-2-2-4-4-4-4-4-4-4-4-4-4-4-4-4-6-6-6-|
Ab|-2-2-2-2-2-2-2-2-2-2-2-2-2-2-2-2-2-2-2-2-2-2-2-2-2-2-2-2-2-4-4-4-|
Db|-2-2-2-2-2-2-2-2-2-2-2-2-2-2-2-2---------------------------------|

eb|-----------------------------------------------------------------|
Bb|-----------------------------------------------------------------|
Gb|---------------------------------2-2-2-2-2-2-2-2-2-2-2-2-2-2-2-2-|
Db|-0-0-0-0-0-0-0-0-0-0-0-0-0-0-0-0-2-2-2-2-2-2-2-2-2-2-2-2-2-2-2-2-|
Ab|-0-0-0-0-0-0-0-0-0-0-0-0-0-0-0-0-0-0-0-0-0-0-0-0-0-0-0-0-0-0-0-0-|
Db|-0-0-0-0-0-0-0-0-0-0-0-0-0-0-0-0---------------------------------|
Tap to rate this tab
 
# A B C D E F G H I J K L M N O P Q R S T U V W X Y Z