Song name
# A B C D E F G H I J K L M N O P Q R S T U V W X Y Z

Kill Hannah - Welcome To Chicago tab

not my tab but ug needs it.
For the intro, i just let some feed back ring out. Do that if you can.Intro 2N.C.
--------------------|
--------------------|
--------------------|
--------------------|
--4b(6)--------7----|
--------------------|
hold the bend and let the E on the 5th ring out.Pre-chorus
pre chorus
N.C
-----------------------------------|
-----------------------------------|
-----------------------------------|
--x-x--xx--9--9--7-7--9--x-xx------|
--x-x--xx--7--7--5-5--7--x-xx------|
--x-x--xx----------------x-xx------|

play the scratches with the snare drum rolls.
Verse
E

------|
------|
------|
--9---|
--7---|
--0---|

let this ring through all the verses.
Chorus
N.C
--------------------------------|
--------------------------------|
--------------------------------|
--14----16-16h17p16--16-16-14---|
--------------------------------|
--------------------------------|

On the last chorus before the interlude, play this
------------------------|
------------------------|
------------------------|
--16----17----19----21--|
------------------------|
------------------------|

strum each of these notes multiple times, listen to the song for how many, and hold the 
note for a while then go back to verse. (note--guitar two plays the verse, i think, 
guitar 1 plays this section.)


Chorus (guitar 2)
 C      E

----------------|
----------------|
----------------|
--5-------------|
--3----2--------|
-------0--------|

Bridge  E
-------------|
-------------|
-------------|
-------------|
--2-2---2-2--|
--0-0---0-0--|

Interlude
-------------------------------------------------------|
-------------------------------------------------------|
--7----9----10----12----14----16----17----19-----------|
--x----x-----x----x------x-----x----x------x-----------|
--5----7-----8----10-----12----14---15----17-----------|
-------------------------------------------------------|
listen to the song to figure out the strumming patterns for the interlude and for the 
and order on everything. Enjoy!!!
Tap to rate this tab
# A B C D E F G H I J K L M N O P Q R S T U V W X Y Z