Song name
# A B C D E F G H I J K L M N O P Q R S T U V W X Y Z

Kill Kenada - Red And Black tab

"Red And Black" Cropknox

Verses
e|-----------------------------|
B|-----------------------------|
G|-----------------------------|
D|--99--555--777--444----------|
A|--99--555--777--444----------|
E|--77--333--555--222----------|

Chorus-
the strumming isnt exactly right, so listen to the song and figure it out.
e|--------------------------------|
B|--------------------------------|
G|--33-999--------77-555----------|
D|--33-999-777----77-555-555------|
A|--55-777-777----55-333-555------|
E|---------555-----------333------|

I havent figured out all the fills that guitar 2 plays yet, but i'll add those soon.

http://www.cropknox.com/
Tap to rate this tab
# A B C D E F G H I J K L M N O P Q R S T U V W X Y Z