Guitaretab - guitar tabs
Song name
# A B C D E F G H I J K L M N O P Q R S T U V W X Y Z

Kill The Alarm - Fire Away tab

1.
Intro:
1|------------------------------------------------------------------------|
2|------------------------------------------------------------------------|
3|-7/8-8-7/8-8-7/8-8-7/8-8-7/8-8--8-----7/8-8-7/8-8----7/8-8-7/8-8--------|
4|-7/8-8-7/8-8-7/8-8-7/8-8-7/8-8--8-8---7/8-8-7/8-8--6-7/8-8-7/8-8-8-10/--|
5|--------------------------------6-8----------------6-------------8-10/--|
6|----------------------------------6----------------4-------------6-8/---|

2.
"If you paint a perfect picture.."
0:14                                         0:23
1|-4-4-4-4-4-4--3-3-3-3-3-3-3--6-6-6-6-6-6-----------------------------|
2|-4-4-4-4-4-4--4-4-4-4-4-4-4--6-6-6-6-6-6------4~-----8~--8~----------|
3|-5-5-5-5-5-5--3-3-3-3-3-3-3--7-7-7-7-7-7-----5-----/7---7------------|
4|-------------------------------------------/5------------------------|
5|---------------------------------------------------------------------|
6|---------------------------------------------------------------------|

3.
0:23
1|-----------------------|
2|----4~-----8~--8~------|
3|---5-----/7---7--------|
4|-/5--------------------|
5|-----------------------|
6|-----------------------|

4.
"I donít need you here to validate me.."
0:34
1|---------------------------------|----------------------------|
2|---------------------------------|----------------------------|
3|---7-8---7-8-5-8---7-8---7-8-5-8-|--7-8---7-8-5-8--7-8-7-5~---|
4|-6-----6---------8-----8---------|-6----6---------8-----------|
5|---------------------------------|----------------------------|
6|---------------------------------|----------------------------|
[ Tab from: http://www.guitaretab.com/k/kill-the-alarm/182246.html ]
5.
Chorus
   Cm5         G#5         D#5          A#5
1|----------------------------------------------------|
2|----------------------------------------------------|
3|-5-5-5-5-5-5-------------8-8-8-8-8-8----------------|
4|-5-5-5-5-5-5-6-6-6-6-6-6-8-8-8-8-8-8-8-8-8-8-8-8-8--|
5|-3-3-3-3-3-3-6-6-6-6-6-6-6-6-6-6-6-6-8-8-8-8-8-8-8--|
6|-------------4-4-4-4-4-4-------------6-6-6-6-6-6-6--|

x2 then Cm5

2.
Now I know just what to change in me
To make you notice what your letting go
3.
This, was all part of my plan
Every step I take is my own
Sick of watching the sun rise
Iím moving straight out to the sunset here I come
4.
I donít need you here to show youíre with me
I donít need you here to show me anything

5.
Fire away with a loaded gun
Light the night Iím on fire, Iím on fire
Even the rain wonít put me out
Iím a self-proclaimed child prodigy
To feed your every desire on fire, on fire

Solo
  G#5                              A#5
3|-1-1-1-1/8-8-8-8-7-7-7-7-5-5-5-5-10-10-10-10-8-8-8-8-7-7-7-7-8-8-8-8----
  G#5                              A#5
3|-1-1-1-1/8-8-8-8-7-7-7-7-5-5-5-5-12-12-12-12-12-12-10-10-10-10-10-10-10-

4.
I donít need you here
I donít need you here
I donít need you here
To validate

         PM...................
2|-----4---4-4-4-4-4-4-4-4-4-4-|
3|-5-3-------------------------|

Fire away with a loaded gun
                         5.
Light the night Iím on fire, Iím on fire
Even the rain wonít put me out
Iím a self-proclaimed child prodigy
To feed your every desire on fire, on fire
Iím on fire Iím on fire Iím on fire Iím on fire
Iím on fire Iím on fire
Ever the rain wonít put,
Even the rain canít put me out.
Related for Fire Away tab