Song name
# A B C D E F G H I J K L M N O P Q R S T U V W X Y Z

Kill The Alarm - Sit Up tab

Tabbed By: Evatime


Intro/Verse:

Rhythm guitar (Riff plays throughout verse)
e-------------------------------------|
b-------------------------------------|
g-------------------------------------|
d-2-4-4-2-4-4-2-4-4-2-4-4-4-2-5-5-5-2-| x2
a-5-5-5-5-5-5-5-5-5-5-5-5-5-5-5-5-5-5-|
e-------------------------------------|


Lead Guitar
e-------------------------------------|
b---5---5---5---5-7/8-----------------|
g-7---7---7---7-----------------------|
d-------------------------------------| x2
a-------------------------------------|
e-------------------------------------|

Then:
e--5-5-5-5--5-5~--5----5--5-5~---------------------|
b--7-7-7-7--5-5~--7----8--5-5~---------------------|
g--7-7-7-7--7-7~--7----7--7-7~---------------------|
d--7-7-7-7--7-7~--7 x3-7--7-7~---------------------|
a--5-5-5-5--5-5~--5----5--5-5~---------------------|
e--5-5-5-5--5-5~--5----5--5-5~---------------------|

e-------------------------------------|
b--5/7-7-7-5/7-7-7-5/7-7-7-8-8-8------|
g-------------------------------------|
d-------------------------------------|
a-------------------------------------|
e-------------------------------------|

Then:
e--5-5-5-5--5-5~--5----5--5-5~---------------------|
b--7-7-7-7--5-5~--7----8--5-5~---------------------|
g--7-7-7-7--7-7~--7----7--7-7~---------------------|
d--7-7-7-7--7-7~--7 x3-7--7-7~---------------------|
a--5-5-5-5--5-5~--5----5--5-5~---------------------|
e--5-5-5-5--5-5~--5----5--5-5~---------------------|

Chorus:

Rhythm guitar
e--5---3---2---5---5---3---2---5---5----------------|
b--5---3---3---5---5---3---3---5---5----------------|
g--7---4---4---6---7---4---4---6---6----------------|
d--7---5---4---7---7---5---4---7---7----------------|
a--5---5---2---7---5---5---2---7---7----------------|
e------3-------5-------3-------5---5----------------|

   D   G   Bm  A   D   G   Bm  A   A


Lead Guitar
e-------17~------17~------------------------|
b--15~------15~-----------------------------|
g-----14~------14~--------------------------|
d-------------------------------------------|
a-------------------------------------------|
e-------------------------------------------|
(Let the notes ring out)

Bridge:

Rhythm guitar
e--2~-  -3----2----       e--5----3----2~-3~-5~~-|
b--3~-  -3----3----       b--5----3----2~-3~-5~~-|
g--4~-  -3 x8-4 x8- (x2)  g--7 x8-3 x8-4~-3~-7~~-|
d--4~-  -5----4----       d--7----5----4~-5~-7~~-|
a--2~-  -5----2----       a--5----5----2~-5~-5~~-|
e-----  -3---------       e-------3-------3~-----|


Lead Guitar
e--------17-17-17-15-14-|
b--12-15----------------|
g-----------------------|
d-----------------------|
a-----------------------|
e-----------------------|

Break:

Rhythm Guitar
e--5~~-----|
b--5~~-----|
g--7~~-----|  (Keep chiming from bridge)
d--7~~-----|
a--5~~-----|
e----------|

No Lead Guitar in Break

Outro:

Rhythm Guitar
e-------------------------------------|
b-------------------------------------|
g-------------------------------------|
d-2-4-4-2-4-4-2-4-4-2-4-4-4-2-5-5-5-2-| x2
a-5-5-5-5-5-5-5-5-5-5-5-5-5-5-5-5-5-5-|
e-------------------------------------|

Lead Guitar
e-5~-----|
b-7~-----|
g-7~-----|  (last note - Ring out)
d-7~-----|
a-5~-----|
e--------|


Order:
Intro/Verse
Verse
Chorus
Verse
Chorus
Bridge
Break
Chorus
Outro
Tap to rate this tab
# A B C D E F G H I J K L M N O P Q R S T U V W X Y Z