Song name
# A B C D E F G H I J K L M N O P Q R S T U V W X Y Z

Kill The Complex - Wonderland tab

http://www.killthecomplex.com/

Tuning- Standard

This song is amazing. <3 This tab may not be perfect or exactly how he plays it, but I 
think it sounds about right. This is my first time making a tab, so I hope you like it :)
-Lindsey

Intro:

e|---4---4---4---4---4---------------------|
B|-----------------------2---2---1---1---1-|
G|-----------------------------------------|
D|-----------------------------------------|
A|-----------------------------------------|
E|-1---1---2---2---2---1---1---1---1---1---|

e|---4---4---4---4---4---1---1-------------|
B|-------------------------------4---4---4-|
G|-----------------------------------------|
D|-----------------------------------------|
A|-----------------------------------------|
E|-1---1---2---2---2---1---1---1---1---1---|

Verse 1:

e|---4---4---4---4---4---------------------|
B|-----------------------2---2---1---1---1-|
G|-----------------------------------------|
D|-----------------------------------------|
A|-----------------------------------------|
E|-1---1---2---2---2---1---1---1---1---1---|

    She cries alone tonight

e|---4---4---4---4---4---1---1-------------|
B|-------------------------------4---4---4-|
G|-----------------------------------------|
D|-----------------------------------------|
A|-----------------------------------------|
E|-1---1---2---2---2---1---1---1---1---1---|

    Her eyes drift away

e|---------------------------------|
B|---1---1---1---1---1---1---1---1-|
G|---------------------------------|
D|---------------------------------|
A|---------------------------------|
E|-4---4---4---4---4---4---4---4---|

  Nothing can save her,
  She decided a long time ago

e|-------------------------------|
B|---2-1-2---2-1-2---2-1-2-1-----|
G|---------------------------3-1-|
D|-------------------------------|
A|-1-------1-------1-------------|
E|-------------------------------|

 And I am the fool who never told her
 I love her so

Chorus:

e|-------------------------------------------------------|
B|-------------------------------------------------------|
G|---6-5-1---1-----6-5-1---1-----6-5-1---1---6-5-1---1---|
D|-------------------------------------------------------|
A|-4-------4---4-4-------4---4-3-------3---3-------3---3-|
E|-------------------------------------------------------|

             D                               A
 No one was caring, as she was wearing, her heart on her
 sleeve,I love a girl who's not

e|-----------------------------------------------|
B|-----------------------------------------------|
G|-----------------------------6-5-1---1---6-5-6-|
D|---4-3---------4-3-----------------------------|
A|-------4-3-4-------4-3-4---4-------4---4-------|
E|-2-----------2-----------2---------------------|

    G                                      D
  afraid to bleed, but now I wish she had cut me

Verse 2:

e|---4---4---4---4---4---------------------|
B|-----------------------2---2---1---1---1-|
G|-----------------------------------------|
D|-----------------------------------------|
A|-----------------------------------------|
E|-1---1---2---2---2---1---1---1---1---1---|

  She dies alone tonight

e|---4---4---4---4---4---1---1-------------|
B|-------------------------------4---4---4-|
G|-----------------------------------------|
D|-----------------------------------------|
A|-----------------------------------------|
E|-1---1---2---2---2---1---1---1---1---1---|

  The world is fast asleep

e|---4---4---4---4---4---------------------|
B|-----------------------2---2---1---1---1-|
G|-----------------------------------------|
D|-----------------------------------------|
A|-----------------------------------------|
E|-1---1---2---2---2---1---1---1---1---1---|

  So many people with problems like hers,
   why can't they see

e|---4---4---4---4---4---1---1-------------|
B|-------------------------------4---4---4-|
G|-----------------------------------------|
D|-----------------------------------------|
A|-----------------------------------------|
E|-1---1---2---2---2---1---1---1---1---1---|

  They all have someone like me

e|---------------------------------|
B|---1---1---1---1---1---1---1---1-|
G|---------------------------------|
D|---------------------------------|
A|---------------------------------|
E|-4---4---4---4---4---4---4---4---|

  But now she's gone,
  and I am stuck here singing my sad

e|-------------------------------|
B|---2-1-2---2-1-2---2-1-2-1-----|
G|---------------------------3-1-|
D|-------------------------------|
A|-1-------1-------1-------------|
E|-------------------------------|

  song, she will never hear

Chorus:

D
No one was caring, as she was wearing her
A
heart on her sleeve,
                          G
I love a girl who's not afraid to bleed,
                        D
but now I wish she had cut me

Verse 3:

     Bm   G           D
She died alone that night

Where was I?
Bm      G       D
I was writing carefully
       Bm                   G
I was writing a letter to finally tell her
D
We could live happily ever after
   Bm                 G        D
If she could fall in love with me
       Bm
But now she's gone
                               A
And I am stuck here singing my sad song

She will never hear

Chorus:

D
No one was caring, as she was wearing her
A
heart on her sleeve,
                          G
I love a girl who's not afraid to bleed,
                        D
but now I wish she had cut me

Verse 4:

Asus4         D      Bm
I wish I had died...
              G      Asus4
I wish I had died...
              D     Bm
I wish I had died...
                G    Asus4
But I'm still alive...
              D     Bm
I wish I had died...
              G     Asus4
I wish I had died...
              D    Bm G
I wish i had died...

Chorus:

D
No one was caring, as she was wearing her
A
heart on her sleeve,
                          G
I love a girl who's not afraid to bleed,
                        D
but now I wish she had cut me
D                            A
Deeper, the razor blades get no where
                         G
And surrounded, we never know

I can't help but wonder
A
Could we have saved each other?
G                                       D
She's dead, and I am dying in wonderland

Verse 5:

e|---4---4---4---4---4---------------------|
B|-----------------------2---2---1---1---1-|
G|-----------------------------------------|
D|-----------------------------------------|
A|-----------------------------------------|
E|-1---1---2---2---2---1---1---1---1---1---|

  I wish she had taken me with her

e|---4---4---4---4---4---1---1-------------|
B|-------------------------------4---4---4-|
G|-----------------------------------------|
D|-----------------------------------------|
A|-----------------------------------------|
E|-1---1---2---2---2---1---1---1---1---1---|

  I would be holding her hand

e|---4---4---4---4---4---------------------|
B|-----------------------2---2---1---1---1-|
G|-----------------------------------------|
D|-----------------------------------------|
A|-----------------------------------------|
E|-1---1---2---2---2---1---1---1---1---1---|

  We could be in heaven or hell, it don't matter

e|---4---4---4---4---4---1---1-------------|
B|-------------------------------4---4---4-|
G|-----------------------------------------|
D|-----------------------------------------|
A|-----------------------------------------|
E|-1---1---2---2---2---1---1---1---1---1---|

  We could be in wonderland
Tap to rate this tab
# A B C D E F G H I J K L M N O P Q R S T U V W X Y Z