Song name
# A B C D E F G H I J K L M N O P Q R S T U V W X Y Z

Kill The Lycan - Rise Up tab

Kill The Lycan -  Rise up 

http://artistcamp.rebeat.com/kill-the-lycan/avalanche/9008798058389/index.html

Tuning: Drop A#


Guitar 1 = "lead Guitar"
Guitar 2 = "rhythem Guitar"

Intro 1.


e|------------------------------------------|
B|------------------------------------------|
G|------------------------------------------|
D|-0----------------------------------------|
A|-0----------------------------------------|
E|-0----------------------------------------|
                     
e|------------------------------------------|
B|------------------------------------------|
G|------------------------------------------|
D|-0--8--10--12--0-----8--10--0--8--10--12--|
A|-0--8--10--12--0--8--8--10--0--8--10--12--|
E|-0--8--10--12--0--7--8--10--0--8--10--12--|

after intro 1. both guitars come together-->


Both guitars 
e|--------------------------------------|
B|--------------------------------------|
G|--------------------------------------|
D|-8----10-------------10---------------|
A|-8----------13-12----10-----13----12--|
E|-8--8----8---------8-10--10----10-----|

Intro 2.

Guitar 1 
e|------------------------------------------------|
B|------------------------------------------------|
G|---------------------------9h10p9---------------|
D|------15-14-12-10-12-1212----------10-10-10h12--|
A|--12--------------------------------------------|
E|------------------------------------------------|
                       
e|---------------------------------------------------|
B|-----------------------------17-15-14----------14--|
G|--------------------------------------17-15-17-----|
D|------15-14-12-10-12-1212--------------------------|
A|--12-----------------------------------------------|
E|---------------------------------------------------|
                       

Intro 2.

Guitar 2

e|--------------------------------------------------------|
B|--------------------------------------------------------|
G|--------------------------------------------------------|
D|-0--8--10--12--0-----8--10--0--8--10--12---8-----10-----|
A|-0--8--10--12--0--8--8--10--0--8--10--12---8-x8--10-x8--|
E|-0--8--10--12--0--7--8--10--0--8--10--12---8-----10-----|

Break intro verse 
Guitar 1

e|-------------------------|
B|-------------------------|
G|-------------------------|
D|-0~----5h7p5-------------|
A|-0~----------7-8~--10-7--|
E|-0~----------------------|

Break intro verse 
Guitar 2

e|------------------------------|
B|------------------------------|
G|------------------------------|
D|-0~----8h10p8-----------------|
A|-0~------------10-12~--13-10--|
E|-0~---------------------------|


Verse 

Both Guitars 

e|--------------------------------|----------------------------------|
B|--------------------------------|----------------------------------|
G|--------------------------------|----------------------------------|
D|---------5h7p5---0--------------|----------------------------------|
A|--8----5-------5-0--------------|-5h7h8---7h8h10----5p0------------|
E|----00-----------0--000-000-000-|-------00-------00-----8p7-0-3-7--|

e|--------------------------------|--------------|
B|--------------------------------|--------------|
G|--------------------------------|--------------|
D|---------5h7p5---0--------------|--3-----7-----|
A|--8----5-------5-0--------------|--3-x8--7-x8--|
E|----00-----------0--000-000-000-|--3-----7-----|

Harmony guitar (Kicks in after some time )

e|------------------------------------|---------------------------------------|
B|------------------------------------|---------------------------------------|
G|------------------------------------|---------------------------------------|
D|-----------8h10p8----0--------------|---------------------------------------|
A|--12----8---------10-0--------------|-8h10h12----10h12h13----5p0------------|
E|-----00--------------0--000-000-000-|---------00----------00-----8p7-0-3-7--|

e|------------------------------|--------------|
B|------------------------------|--------------|
G|------------------------------|--------------|
D|---------5h7p5-0--------------|--3-----7-----|
A|--8----5-------0--------------|--3-x8--7-x8--|
E|----00---------0--000-000-000-|--3-----7-----|


Break into breakdown

Guitar 1
e|----------------------------------------|
B|------------------------------------10~-|
G|----------------------10-7-----10-9-----|
D|--------7h8p7--------------8-7----------|
A|--0-5-7-------10-8-7--------------------|
E|----------------------------------------|

Guitar 2
e|---------------------------------------------------|
B|-----------------------------------------------13~-|
G|---------------------------14-10---------14-12-----|
D|---------10h12p10----------------12-10-------------|
A|--0-8-10----------13-12-10-------------------------|
E|---------------------------------------------------|


Breakdown melody 


e|--------------------|
B|--------------------|
G|--10-7-----12-9-----|
D|-------7-8------11--|
A|--------------------|
E|--------------------|

end melody breakdown 
e|--------------------|
B|--------------------|
G|--------------------|
D|--7---5-8-----------|
A|----8-----5-8-4-0---|
E|--------------------|


Chorus 

Rhythem = Intro 2, Guitar 2

Guitar 1


e|------------------------------------------------|
B|------------------------------------------------|
G|--10---9/10------12/14----15/12--10101010-9999--|
D|--x----x/x-------x-/x-----x-/x---x-x-x-x--xxxx--|
A|--8----7/8-------10/12----13/10--8-8-8-8--7777--|
E|------------------------------------------------|

2nd verse the same as the the first except additional chords 

e|--------------------|
B|--------------------|
G|--------------------|
D|--0----8----3----7--|
A|--0----8----3----7--|
E|--0----8----3----7--|


Part after 2nd chorus

Both guitars 
e|--------------------------------------------------------------------------------|
B|--------------------------------------------------------------------------------|
G|-------------------------------------------------------------------7------9-----|
D|---------------------------------------------------------------------8------10--|
A|--------5h7h8-7-5--------131313-1010-1212-88--------5h7h8-7-5----------10-------|
E|--0-000------------000------------------------0-000------------000--------------|

Harmony Guitar 
e|---------------------------------------------------------------------------------------|
B|---------------------------------------------------------------------------------------|
G|--------------------------------------------------------------------------------12-----|
D|-------------------------121212-88--1010--77---------------------------15-12-------14--|
A|--------8h10h12-10-8----------------------------------8h10h12-10-8-----------13--------|
E|--0-000--------------000------------------------0-000--------------000-----------------|


Interlude into last breakdown Breakdown 
e|-----------------|
B|-----------------|
G|-----------------|
D|--8----3----7/0--|
A|--8----3----7/0--|
E|--8----3----7/0--|

Last Breakdown Melody

e|----------------------------------|
B|----------------------------------|
G|-6h7p6----------------------------|
D|--------8-7--0-4-5-7-7-7-5-4------|
A|-----------------------------6-5--|
E|----------------------------------|



Compiled with TabPlayer :: http://www.simoneperandini.com/tabplayer/

Tap to rate this tab
# A B C D E F G H I J K L M N O P Q R S T U V W X Y Z