Song name
# A B C D E F G H I J K L M N O P Q R S T U V W X Y Z

Kill The Lycan - Fading Memories tab

Kill The Lycan - Fading Memories 
http://artistcamp.rebeat.com/kill-the-lycan/avalanche/9008798058389/index.html 
http://www.facebook.com/killthelycan
Tuning: Drop A# 
Guitar 1 = "lead guitar" 
Guitar 2 = "rhythm guitar" 
 
Intro 1: 

Guitar 1 
C |------------------------------------------------------|
G |------------------------------------------------------|
D#|-7h8p7------------------------------------------------|
A#|-------10h12-8h10-7h8---------------------------------| 8x
F |------------------------------------------------------|
A#|------------------------------------------------------|

Guitar 2:

C |------------------------------------------------------|
G |------------------------------------------------------|
D#|------------------------------------------------------|
A#|-0-3-8-7----------------------------------------------| 2x
F |-0-3-8-7----------------------------------------------|
A#|-0-3-8-7----------------------------------------------|

Intro 2:

Guitar 1:

C |------------------------------------------------------|
G |------------------------------------------------------|
D#|------------------------------------------------------|
A#|-7-7-0-0-7-7-0-0-0-0-8-8-0-0-7-7-0-0-8-8-0-0-10-10-0-8-10-8-|
F |------------------------------------------------------|
A#|------------------------------------------------------|

C |------------------------------------------------------|
G |------------------------------------------------------|
D#|-7-7-0-0-7-7-0-0-0-0-8-8-0-0-7-7-0-0-5-5-0-0-7-0-7-8-7|
A#|------------------------------------------------------|
F |------------------------------------------------------|
A#|------------------------------------------------------|

Verse 1:

Both guitars

C |------------------------------------------------------|
G |------------------------------------------------------|
D#|------------------------------------------------------|
A#|------------------------------------------------------| 
F |-5-----5h7h8p7p5---------5---3---8p7------------------|
A#|---0-0-----------0-0-0-0---0---0----------------------|

C |------------------------------------------------------|
G |------------------------------------------------------|
D#|------------------------------------------------------|
A#|------------------------------------------------------| 
F |-5-----5h7h8p7p5---------5---3---8p7------------------|
A#|---0-0-----------0-0-0-0---0---0----------------------|

C |------------------------------------------------------|
G |------------------------------------------------------|
D#|------------------------------------------------------|
A#|------------------------------------------------------| 
F |-5-----5h7h8p7p5---------5---7---8--------------------|
A#|---5-5-----------5-5-5-5---5---5----------------------|

C |------------------------------------------------------|
G |------------------------------------------------------|
D#|------------------------------------------------------|
A#|---------------------------7h8p7----------------------|
F |-8-----10---12--7---8---10-------8--------------------|
A#|---8-8----8-------7---7-------------------------------|

Verse 2:

Both guitars:

C |------------------------------------------------------|
G |------------------------------------------------------|
D#|------------------------------------------------------|
A#|-------------------------3-2--------------------------|
F |-----------------------------3-5----------------------|
A#|-7-0---0-0-0-7-0---0-0-0------------------------------|

C |------------------------------------------------------|
G |------------------------------------------------------|
D#|------------------------------------------------------|
A#|------------------------------------------------------|
F |--------------------------------5----------7----------|
A#|-7-0---0-0-0-7-0---0-0-0--5h7h8---8-7h8h10---10-------|

Pre Chorus:

Both guitars:

C |------------------------------------------------------|
G |------------------------------------------------------|
D#|---10----14---------10----9---------------------------|
A#|-8-x--10-x--12-10-8-x--10-x-0~------------------------|
F |-8-8--10-12-12-10-8-8--10-7-0~------------------------|
A#|-8----10----12-10-8----10---0~------------------------|

Chorus:

Guitar 1:

C |------------------------------------------------------|
G |------------------------------------------------------|
D#|-14-10-17-12------------------------------------------|
A#|-x--x--x--x-------------------------------------------|
F |-12-8--15-10------------------------------------------|
A#|------------------------------------------------------|

Guitar 2:

C |-------------------|
G |-------------------|
D#|-------------------|
A#|-0-3-8-10--0-8-3-5-|
F |-0-3-8-10--0-8-3-3-|
A#|-0-3-8-10--0-8-3-2-|

Interlude:

Guitar 1:

C |--------|
G |--------|
D#|-14--12-|
A#|-x---x--|
F |-12--10-|
A#|--------|

Guitar 2:

C |---|
G |---|
D#|---|
A#|-8-|
F |-8-|
A#|-8-|

Verse 2 Part 2:

Both guitas:

C |-----------------------------------------------------------------|
G |-----------------------------------------------------------------|
D#|-----------------------------------------------------------------|
A#|-------------------------------------------------5-3-2-3-2-------|
F |-5-----5h7h8p7p5-----------------5-----5h7h8p7p5-----------5-3-0-|
A#|---0-0-----------000-000-000-000---0-0---------------------------|

Pre Chorus

Chorus

Bridge

Guitar 1:

C |-----------------------------|
G |-----------------------------|
D#|-----------------------------|
A#|-----10---10-----7------7----|
F |---8---------8-----8------8--|
A#|-8------8------0-----10------|

C |--------|
G |--------|
D#|--------|
A#|-8-0-10-|
F |-8-0-10-|
A#|-8-0-10-|
Tap to rate this tab
# A B C D E F G H I J K L M N O P Q R S T U V W X Y Z