Song name
# A B C D E F G H I J K L M N O P Q R S T U V W X Y Z

Kill The Lycan - A Thing Called Change tab

Kill The Lycan - A Thing Called Change
http://artistcamp.rebeat.com/kill-the-lycan/avalanche/9008798058389/index.html 
http://www.facebook.com/killthelycan
Tuning: Drop A# 
Guitar 1 = "lead guitar" 
Guitar 2 = "rhythm guitar" 
Guitar 3 = "harmony guitar"
 
Intro:

Guitar 1:

C |----------------------------------------------------------------------|
G |----------------------------------------------------------------------|
D#|----------------17-------------------------15-14-------------14-------|
A#|-------14-15-14----15-14----14-15----15-17-------15----14-15----15-14-|
F |-13h15-------------------15-------17----------------15----------------|
A#|----------------------------------------------------------------------|

Guitar 2:

C |------------------------------------------------------|
G |------------------------------------------------------|
D#|------------------------------------------------------|
A#|-8-0-10-----------------------------------------------|
F |-8-0-10-----------------------------------------------|
A#|-8-0-10-----------------------------------------------|

Guitar 3:

C |-------13-17-13----15-12------------------------------|
G |----13----------15-------13---------------------------|
D#|-10---------------------------------------------------|
A#|------------------------------------------------------|
F |------------------------------------------------------|
A#|------------------------------------------------------|

Verse 1:

Both guitars:

C |-------------------------------------------------------|
G |-------------------------------------------------------|
D#|-------------------------------------------------------|
A#|--------------------------------------------------8-10-|
F |------7----8-7--------7----8-7---------7----8-7---8-10-|
A#|-0~-8---10-----8-0~-8---10-----8-10~-8---10-----8-8-10-|

Verse 1 Part 2:

Both guitars:

C |---------------------------------------------------------------------|
G |---------------------------------------------------------------------|
D#|---------------------------------------------------------------------|
A#|-------------------------------------------------------5-3-2-3-2---2-|
F |-5-----8---7-3-------8---5---5h7h8-5-----8---7-3-----------------3---|
A#|---0-0---0-----0-0-0---0---0---------0-0---0-----0-0-0---------------|

Pre-Chorus:

Both guitars:

C |------------------------------------------------------|
G |------------------------------------------------------|
D#|------------------------------------------------------|
A#|--------------------8------7----------3-2-3-----------|
F |-----------------12---12-8---8------------3-----------|
A#|-888-888-8-8-8-8---------------0--0-0-----3-----------|

C |------------------------------------------------------|
G |------------------------------------------------------|
D#|------------------------------------------------------|
A#|--------------------8------7---3-2-3-5----------------|
F |-----------------12---12-8---8-3-2-3-5----------------|
A#|-888-888-8-8-8-8---------------3-2-3-5----------------|


Chorus equals Intro

Breakdown

Pre-Chorus 

Chorus

Interlude:

C |------------------------------------------------------|
G |------------------------------------------------------|
D#|------------------------------------------------------|
A#|-12-8-3-5---------------------------------------------|
F |-12-8-3-3---------------------------------------------|
A#|-12-8-3-2---------------------------------------------|


Bridge

Both guitars:

C |------------------------------------------------------------------------------------|
G |------------------------------------------------------------------------------------|
D#|------------------------------------------------------------------------------------|
A#|------------------------------------------------------------------------------------|
F |-----8---10----12--10---8---8h10h12-------10----12-------13----12----10----10h12h13-|
A#|-8-8---8----8-8--8----8---8---------10-10----10----10-10----10----10----10----------|

C |----------------------------------------------------------------------------------|
G |----------------------------------------------------------------------------------|
D#|----------------------------------------------------------------------------------|
A#|----------------------15---------------------------------------10---8-------------|
F |-------12----13-------------13----12----12h13h15-----8---8--------------8---8h10--|
A#|-12-12----12----12-12----12----12----12----------7-7---7---7-7----7---7---7-------|

Guitar 1:

C |----------17---------15-------------------------------|
G |----15---------17----------18----17-15----15----------|
D#|-14----14---14----14----14----14-------17-------------|
A#|------------------------------------------------------|
F |------------------------------------------------------|
A#|------------------------------------------------------|
Tap to rate this tab
 
# A B C D E F G H I J K L M N O P Q R S T U V W X Y Z