Song name
# A B C D E F G H I J K L M N O P Q R S T U V W X Y Z

Killer Be Killed - Wings Of Feather And Wax tab

So this is my first tab and it is in no way perfect but hey its the first tab so far so why not
Killer be killed
Wings of feather and wax
Tuning drop c (CGCFAD)

. palm mute
/\ slide

d------------------------------------------------------------------------|
A------------------------------------------------------------------------|
F------------------------------------------------------------------------|
C-0--0--0--7-0-0-0-0-5-7-8-5-7-0-0-0-0-5-7-8-5-7-0-0-0-0-5-7-8-5-7-0-0-0-|
G-0--0--0--7-0-0-0-0-5-7-8-5-7-0-0-0-0-5-7-8-5-7-0-0-0-0-5-7-8-5-7-0-0-0-|
C-0--0--0--7-0-0-0-0-5-7-8-5-7-0-0-0-0-5-7-8-5-7-0-0-0-0-5-7-8-5-7-0-0-0-|
  .  .  .    . . . .           . . . .           . . . .           . . .
d--------|
A--------|
F--------|
C-0-3--2-|   X2
G-0-3--2-|
C-0-3--2-|
  .

d--------------------------------------------------|
A--------------------------------------------------|
F-7-7-7-7-7-7-7-7-7-7-7-7-9-9-9-9-9-9--10-10-10-10-|
C-X-X-X-X-X-X-X-X-X-X-X-X-X-X-X-X-X-X--X--X--X--X--|   X4
G-5-5-5-5-5-5-5-5-5-5-5-5-7-7-7-7-7-7--7--7--7--7--|
C--------------------------------------------------|


d------------------------------------------------------------------------|
A------------------------------------------------------------------------|
F------------------------------------------------------------------------|
C-0--0--0--7-0-0-0-0-5-7-8-5-7-0-0-0-0-5-7-8-5-7-0-0-0-0-5-7-8-5-7-0-0-0-|
G-0--0--0--7-0-0-0-0-5-7-8-5-7-0-0-0-0-5-7-8-5-7-0-0-0-0-5-7-8-5-7-0-0-0-|
C-0--0--0--7-0-0-0-0-5-7-8-5-7-0-0-0-0-5-7-8-5-7-0-0-0-0-5-7-8-5-7-0-0-0-|
  .  .  .    . . . .           . . . .           . . . .           . . .
d--------|
A--------|
F--------|
C-0-3--2-|   X3. (first time with lead over lay thing)
G-0-3--2-|
C-0-3--2-|
  .

The solo part here the rhythm just feeds back


d-------------------------------------------------|
A-------------------------------------------------|
F-------------------------------------------------|
C-6-6/7\6-6/7\6-6/7\6-6/7\6-6/7\6-6/7\6-6/7-9-8-8-|  X2
G-6-6/7\6-6/7\6-6/7\6-6/7\6-6/7\6-6/7\6-6/7-9-8-8-|
C-6-6/7\6-6/7\6-6/7\6-6/7\6-6/7\6-6/7\6-6/7-9-8-8-|

d-------------------------------------------------|
A-------------------------------------------------|
F-------------------------------------------------|
C-6-6/7\6-6/7\6-6/7\6-6/7\6-6/7\6-6/7\6-6/7-9-8-8-|  X1
G-6-6/7\6-6/7\6-6/7\6-6/7\6-6/7\6-6/7\6-6/7-9-8-8-|
C-6-6/7\6-6/7\6-6/7\6-6/7\6-6/7\6-6/7\6-6/7-9-8-8-|
    . . . . . . . . . . . . . . . . . . . . . . .

Past there its up to you to figure out but I think its around the 4th fret but I have no 
clue... the song is fairly repetitive so just listen to get the timing.
Tap to rate this tab
# A B C D E F G H I J K L M N O P Q R S T U V W X Y Z