Song name
# A B C D E F G H I J K L M N O P Q R S T U V W X Y Z

Killer Instinct - The Instinct tab

Album: Killer Instinct Soundtrack

Title: The Instinct

1995

p      Pull off
h      Hammer on
/      Slide
*      Palm Mute
#      Pinched Harmonic 

======
Main Riff 
======
||-------------------------------------------------------------------------|
||-------------------------------------------------------------------------|
||-------------------------------------------------------------------------|
||-----------------------9----7-7-7/9----------------------7----7-7-7/9----|
||-----------------------7----5-5-5/7----------------------5----5-5-5/7----|
||--0000--00-00-0--00000---00---------0000--00-00-0--00000---00------------|
||  ****  ** ** *  *****   **         ****  ** ** *  *****   **
||
||
||---------------------------------------------------------------------------|
||---------------------------------------------------------------------------|
||---------------------------------------------------------------------------|
||-----------------------9----7-7-7/9----------------------7---97--9--7/9----|    x 2
||-----------------------7----5-5-5/7----------------------5---75--7--5/7----|
||--0000--00-00-0--00000---00---------0000--00-00-0--00000-------------------|
    ****  ** ** *  *****   **         ****  ** ** *  *****   

==========
Main Riff & Lead
==========
||---------------------------------------------------------------------------|
||---------------------------------------------------------------------------|
||---------------------------------------------------------------------------|
||-----------------------9----7-7-7/9----------------------7----7-7-7/9------|
||-----------------------7----5-5-5/7----------------------5----5-5-5/7------|
||--0000--00-00-0--00000---00---------0000--00-00-0--00000---00--------------|
||  ****  ** ** *  *****   **         ****  ** ** *  *****   **
||
||
||---------------------------------------------------------------------------|
||------------8-----10b-r10----8/7-------------------------------------------|
||------9---------------------------------7-----7/9--------------------------|
||-----------------------------------9---------------------------------------|
||---------------------------------------------------------------------------|
||---------------------------------------------------------------------------|



||---------------------------------------------------------------------------|
||---------------------------------------------------------------------------|
||---------------------------------------------------------------------------|
||-----------------------9----7-7-7/9----------------------7---97--9--7/9----|
||-----------------------7----5-5-5/7----------------------5---75--7--5/7----|
||--0000--00-00-0--00000---00---------0000--00-00-0--00000-------------------|
||  ****  ** ** *  *****   **         ****  ** ** *  *****      
||
||
||-------------------------------7-----10----12----7-------------------------|
||------------8-----10b-r10--------------------------------------------------|
||------9--------------------------------------------------------------------|
||---------------------------------------------------------------------------|
||---------------------------------------------------------------------------|
||---------------------------------------------------------------------------|



||---------------------------------------------------------------------------|
||---------------------------------------------------------------------------|
||---------------------------------------------------------------------------|
||-----------------------9----7-7-7/9----------------------7----7-7-7/9------|
||-----------------------7----5-5-5/7----------------------5----5-5-5/7------|
||--0000--00-00-0--00000---00---------0000--00-00-0--00000---00--------------|
||  ****  ** ** *  *****   **         ****  ** ** *  *****   **
||
||
||---------------------------------------------------------------------------|
||------------8-----10b-r10----8/7-------------------------------------------|
||------9---------------------------------7-----7/9--------------------------|
||-----------------------------------9---------------------------------------|
||---------------------------------------------------------------------------|
||---------------------------------------------------------------------------|



||---------------------------------------------------------------------------|
||---------------------------------------------------------------------------|
||---------------------------------------------------------------------------|
||-----------------------9----7-7-7/9----------------------7---97--9--7/9----|
||-----------------------7----5-5-5/7----------------------5---75--7--5/7----|
||--0000--00-00-0--00000---00---------0000--00-00-0--00000-------------------|
||  ****  ** ** *  *****   **         ****  ** ** *  *****  
||
||-------------------------------7-----10----12----7/12#---------------------|
||------------8-----10b-r10--------------------------------------------------|
||------9--------------------------------------------------------------------|
||---------------------------------------------------------------------------|
||---------------------------------------------------------------------------|
||---------------------------------------------------------------------------|



||---------------------------------------------------------------------------|
||---------------------------------------------------------------------------|
||---------------------------------------------------------------------------|
||-----------------------9----7-7-7/9----------------------7----7-7-7/9------|
||-----------------------7----5-5-5/7----------------------5----5-5-5/7------|
||--0000--00-00-0--00000---00---------0000--00-00-0--00000---00--------------|
||  ****  ** ** *  *****   **         ****  ** ** *  *****   **
||
||
||----------17--15----------------------------17--15-------------------------|
||--------------------13b-------------------------------15b------------------|
||---------------------------------------------------------------------------|
||---------------------------------------------------------------------------|
||---------------------------------------------------------------------------|
||---------------------------------------------------------------------------|



||---------------------------------------------------------------------------|
||---------------------------------------------------------------------------|
||---------------------------------------------------------------------------|
||-----------------------9----7-7-7/9----------------------7---97--9--7/9----|
||-----------------------7----5-5-5/7----------------------5---75--7--5/7----|
||--0000--00-00-0--00000---00---------0000--00-00-0--00000-------------------|
||  ****  ** ** *  *****   **         ****  ** ** *  *****   
||
||
||--------------------15b----15p14------20b----------------------------------|
||---------------------------------------------------------------------------|
||----------12-12-11--------------------------16p14--------------------------|
||---------------------------------------------------------------------------|
||---------------------------------------------------------------------------|
||---------------------------------------------------------------------------|

=======
Interlude
=======

||---------------------------------------------------------------------------|
||---------------------------------------------------------------------------|
||---------------------------------------------------------------------------|
||---------------------------------------------------------7---97--9--7/9----|
||---------------------------------------------------------5---75--7--5/7----|
||--0000--00-00-0--000000--00-00-0--000000--00-00-0--00000-------------------|
||  ****  ** ** *  ******  ** ** *  ******  ** ** *  *****   

=======
=======

||---------------------------------------------------------------------------|
||---------------------------------------------------------------------------|
||---------------------------------------------------------------------------|
||-----------------------9----7-7-7/9----------------------7----7-7-7/9------|
||-----------------------7----5-5-5/7----------------------5----5-5-5/7------|
||--0000--00-00-0--00000---00---------0000--00-00-0--00000---00--------------|
||  ****  ** ** *  *****   **         ****  ** ** *  *****   **
||
||
||---------------------------------------------------------------------------|
||------------8-----10b-r10----8/7-------------------------------------------|
||------9---------------------------------7-----7/9--------------------------|
||-----------------------------------9---------------------------------------|
||---------------------------------------------------------------------------|
||---------------------------------------------------------------------------|



||---------------------------------------------------------------------------|
||---------------------------------------------------------------------------|
||---------------------------------------------------------------------------|
||-----------------------9----7-7-7/9----------------------7---97--9--7/9----|
||-----------------------7----5-5-5/7----------------------5---75--7--5/7----|
||--0000--00-00-0--00000---00---------0000--00-00-0--00000-------------------|
||  ****  ** ** *  *****   **         ****  ** ** *  *****   
||
||
||-------------------------------7-----10----12----7-------------------------|
||------------8-----10b-r10--------------------------------------------------|
||------9--------------------------------------------------------------------|
||---------------------------------------------------------------------------|
||---------------------------------------------------------------------------|
||---------------------------------------------------------------------------|



||---------------------------------------------------------------------------|
||---------------------------------------------------------------------------|
||---------------------------------------------------------------------------|
||-----------------------9----7-7-7/9----------------------7----7-7-7/9------|
||-----------------------7----5-5-5/7----------------------5----5-5-5/7------|
||--0000--00-00-0--00000---00---------0000--00-00-0--00000---00--------------|
||  ****  ** ** *  *****   **         ****  ** ** *  *****   **
||
||
||---------------------------------------------------------------------------|
||------------8-----10b-r10----8/7-------------------------------------------|
||------9---------------------------------7-----7/9--------------------------|
||-----------------------------------9---------------------------------------|
||---------------------------------------------------------------------------|
||---------------------------------------------------------------------------|



||---------------------------------------------------------------------------|
||---------------------------------------------------------------------------|
||---------------------------------------------------------------------------|
||-----------------------9----7-7-7/9----------------------7---97--9--7/9----|
||-----------------------7----5-5-5/7----------------------5---75--7--5/7----|
||--0000--00-00-0--00000---00---------0000--00-00-0--00000-------------------|
||  ****  ** ** *  *****   **         ****  ** ** *  *****   
||
||
||-------------------------------7-----10----12----7/12#---------------------|
||------------8-----10b-r10--------------------------------------------------|
||------9--------------------------------------------------------------------|
||---------------------------------------------------------------------------|
||---------------------------------------------------------------------------|
||---------------------------------------------------------------------------|



||---------------------------------------------------------------------------|
||---------------------------------------------------------------------------|
||---------------------------------------------------------------------------|
||-----------------------9----7-7-7/9----------------------7----7-7-7/9------|
||-----------------------7----5-5-5/7----------------------5----5-5-5/7------|
||--0000--00-00-0--00000---00---------0000--00-00-0--00000---00--------------|
||  ****  ** ** *  *****   **         ****  ** ** *  *****   **
||
||
||----------17--15----------------------------17--15-------------------------|
||--------------------13b-------------------------------15b------------------|
||---------------------------------------------------------------------------|
||---------------------------------------------------------------------------|
||---------------------------------------------------------------------------|
||---------------------------------------------------------------------------|



||---------------------------------------------------------------------------|
||---------------------------------------------------------------------------|
||---------------------------------------------------------------------------|
||-----------------------9----7-7-7/9----------------------7---97--9--7/9----|
||-----------------------7----5-5-5/7----------------------5---75--7--5/7----|
||--0000--00-00-0--00000---00---------0000--00-00-0--00000-------------------|
||  ****  ** ** *  *****   **         ****  ** ** *  *****  
||
||
||--------------------15b----15p14------20b----------------------------------|
||---------------------------------------------------------------------------|
||----------12-12-11--------------------------16p14--------------------------|
||---------------------------------------------------------------------------|
||---------------------------------------------------------------------------|
||---------------------------------------------------------------------------|



||---------------------------------------------------------------------------|
||---------------------------------------------------------------------------|
||---------------------------------------------------------------------------|
||-----------------------9----7-7-7/9----------------------7----7-7-7/9------|
||-----------------------7----5-5-5/7----------------------5----5-5-5/7------|
||--0000--00-00-0--00000---00---------0000--00-00-0--00000---00--------------|
||  ****  ** ** *  *****   **         ****  ** ** *  *****   **
||
||
||---------------------------------------------------------------------------|
||------------8-----10b-r10----8/7-------------------------------------------|
||------9---------------------------------7-----7/9--------------------------|
||-----------------------------------9---------------------------------------|
||---------------------------------------------------------------------------|
||---------------------------------------------------------------------------|



||---------------------------------------------------------------------------|
||---------------------------------------------------------------------------|
||---------------------------------------------------------------------------|
||-----------------------9----7-7-7/9----------------------7---97--9--7/9----|
||-----------------------7----5-5-5/7----------------------5---75--7--5/7----|
||--0000--00-00-0--00000---00---------0000--00-00-0--00000-------------------|
||  ****  ** ** *  *****   **         ****  ** ** *  *****   
||
||
||-------------------------------7-----10----12----7-------------------------|
||------------8-----10b-r10--------------------------------------------------|
||------9--------------------------------------------------------------------|
||---------------------------------------------------------------------------|
||---------------------------------------------------------------------------|
||---------------------------------------------------------------------------|



||---------------------------------------------------------------------------|
||---------------------------------------------------------------------------|
||---------------------------------------------------------------------------|
||-----------------------9----7-7-7/9----------------------7----7-7-7/9------|
||-----------------------7----5-5-5/7----------------------5----5-5-5/7------|
||--0000--00-00-0--00000---00---------0000--00-00-0--00000---00--------------|
||  ****  ** ** *  *****   **         ****  ** ** *  *****   **
||
||
||---------------------------------------------------------------------------|
||------------8-----10b-r10----8/7-------------------------------------------|
||------9---------------------------------7-----7/9--------------------------|
||-----------------------------------9---------------------------------------|
||---------------------------------------------------------------------------|
||---------------------------------------------------------------------------|



||---------------------------------------------------------------------------|
||---------------------------------------------------------------------------|
||---------------------------------------------------------------------------|
||-----------------------9----7-7-7/9----------------------7---97--9--7/9----|
||-----------------------7----5-5-5/7----------------------5---75--7--5/7----|
||--0000--00-00-0--00000---00---------0000--00-00-0--00000-------------------|
||  ****  ** ** *  *****   **         ****  ** ** *  *****   
||
||
||-------------------------------7-----10----12----7/12#---------------------|
||------------8-----10b-r10--------------------------------------------------|
||------9--------------------------------------------------------------------|
||---------------------------------------------------------------------------|
||---------------------------------------------------------------------------|
||---------------------------------------------------------------------------|

====
Outro  (For Guitar)
====

||---------------------------------------------------------------------------|
||---------------------------------------------------------------------------|
||---------------------------------------------------------------------------|
||--2---2---2---2---2---2---2---2---2-----4-------5-----7--------------------|
||--2---2---2---2---2---2---2---2---2-----4-------5-----7--------------------|
||--0---0---0---0---0---0---0---0---0-----2-------3-----5--------------------|
    *   *   *   *   *   *   *   *

(Repeat and fade out)
Tap to rate this tab
# A B C D E F G H I J K L M N O P Q R S T U V W X Y Z