Song name
# A B C D E F G H I J K L M N O P Q R S T U V W X Y Z

Killerpilze - Los tab

Los 

|----------------------------------------------|
|-6-6--6-6--6-6--6-6--7-7--4-4--4-4--4-4--4-4--|
|----------------------------------------------|
|----------------------------------------------|
|----------------------------------------------|
|----------------------------------------------|

|------------------------|
|------------------------|
|-------9-9------9-9-----|
|-11----9-9-9----9-9-11--| x4
|-11----7-7-9----7-7-11--|
|-9---------7---------9--|
Tap to rate this tab
 
# A B C D E F G H I J K L M N O P Q R S T U V W X Y Z