Song name
# A B C D E F G H I J K L M N O P Q R S T U V W X Y Z

Killerpilze - Springt Hoch tab

Help us improve GuitareTab! Take a short survey!
Max play intro:

e----------------------------------------------|
h-------------15-15----------------------------|
g-12-12-------------12---12-12-------14-14-12--|
d-------14-14------------------14-14-----------| X2
a----------------------------------------------|
E----------------------------------------------|

Then Max play:

e----------------------------------------------|
h-------------15-15----------------------------|
g-12-12-------------12---12-12-------14-14-12--|
d-------14-14------------------14-14-----------| X4
a----------------------------------------------|
E----------------------------------------------|

JO play:

e-------------------------------------------------------------|
h-------------------------------------------------------------|
g-99999999999999-77777777777777-55555555555555-2222222222222--|
d-99999999999999-77777777777777-55555555555555-2222222222222--| X1
a-77777777777777-55555555555555-33333333333333-0000000000000--|
E-------------------------------------------------------------|

And then Max and JO play this:

e-------------------------------------------------------------|
h-------------------------------------------------------------|
g-99999999999999-77777777777777-55555555555555-2222222222222--|
d-99999999999999-77777777777777-55555555555555-2222222222222--| X1
a-77777777777777-55555555555555-33333333333333-0000000000000--|
E-------------------------------------------------------------|

Verse:

Max play this:

e----------------------------------------------|
h-------------15-15----------------------------|
g-12-12-------------12---12-12-------14-14-12--|
d-------14-14------------------14-14-----------| X4
a----------------------------------------------|
E----------------------------------------------|

e------------------------------------------------------|
h------------------------------------------------------|
g-999--999-999-777--777-777-555--555-555-222--222-222--|
d-999--999-999-777--777-777-555--555-555-222--222-222--| X1
a-777--777-777-555--555-555-333--333-333-000--000-000--|
E------------------------------------------------------|

JO play this:

e------------------------------------------------------|
h------------------------------------------------------|
g-999--999-999-777--777-777-555--555-555-222--222-222--|
d-999--999-999-777--777-777-555--555-555-222--222-222--| X3
a-777--777-777-555--555-555-333--333-333-000--000-000--|
E------------------------------------------------------|

Max:

e--------------------------------|
h----8/7-----55h7-----0------0---|
g----------------------0------0--|
d--------------------------------| X1
a-7-------5----------------------|
E------------------8-------5-----|

Chorus:

Max:

e------------------------|
h------------------------|
g-9-9-77777-55555-22222--|
d-9-9-77777-55555-22222--| X4
a-7-7-55555-33333-00000--|
E------------------------|

JO:

e------------------------|
h------------------------|
g-9-9-77777-55555-22222--|
d-9-9-77777-55555-22222--| X4
a-7-7-55555-33333-00000--|
E------------------------|

And then you play:

Verse X1
Chorus X1
Bridge X1-(Sorry i don't now how to play bridge....)
Chorus X2
Outro X1

Max play Outro:

e-------------------------------------|
h-------------------------------------|
g-------------------------------------|
d-----------------------------2222----| X1
a-----------------------------2222-7~-|
E-12121110109988776655443322110000----|
Related for Springt Hoch tab