Guitaretab - guitar tabs
Song name
# A B C D E F G H I J K L M N O P Q R S T U V W X Y Z

Killerpilze - Komm Mit tab

Max play this:

e|-----------------------------|
H|-----------------------------|
G|-----------------------------|
D|--11--12---------------------|
A|-9---9---9-12-12-11-12-11-9--| X3
E|-----------------------------|

e|---------------------------|
H|---------------------------|
G|---------------------------|
D|--11--12-------------------|
A|-9---9---9-12-12-11~-------|
E|---------------------------|

e|---------------------------|
H|---------------------------|
G|---------------------------|
D|--11--12-------------------|
A|-9---9---9-12-12-11~-------|
E|---------------------------|
[ Tab from: http://www.guitaretab.com/k/killerpilze/77806.html ]
e|---------------------------|
H|---------------------------|
G|---------------------------|
D|-4-4-4-7-7-6-7-------------|
A|-4-4-4-7-7-6-7-------------| X3
E|-2-2-2-5-5-4-5-------------|

e|---------------------------|
H|---------------------------|
G|---------------------------|
D|-4-4-4-7-xxxx--------------|
A|-4-4-4-7-xxxx--------------|
E|-2-2-2-5-xxxx--------------|

e|-------------------------------------------------|
H|-------------------------------------------------|
G|-------------7-7-7-7-7-7-9-9-9-9-9-9-4-4-4-4-4-4-|
D|-4-4-4-4-4-4-7-7-7-7-7-7-9-9-9-9-9-9-4-4-4-4-4-4-|
A|-4-4-4-4-4-4-5-5-5-5-5-5-7-7-7-7-7-7-2-2-2-2-2-2-|
E|-2-2-2-2-2-2-------------------------------------|
Related for Komm Mit tab