Song name
# A B C D E F G H I J K L M N O P Q R S T U V W X Y Z

Killerpilze - Ich Kann Auch Ohne Dich tab

Intro:

Jo play this:
e-------------5-------------|
H-------------5-------------|
G-------------7-------------|
D-------------7-------------|
A-------------5-------------|
E-------------5-------------|


Then Max play this:
e--------------3-2-3--3-2-3--3-2-3--3-2-3--|
H-------------0------3------1------3-------|
G------------------------------------------| X2
D------------------------------------------|
A------------------------------------------|
E------------------------------------------|

Verse:

Jo:
e-------------5-------------|
H-------------5-------------|
G-------------7-------------|
D-------------7-------------|
A-------------5-------------|
E-------------5-------------|

Jo:
e---------------------------------|
H---------------------------------|
G-------------7-7--5-5--3-3--5-5--| X4
D-------------7-7--5-5--3-3--5-5--|
A-------------5-5--3-3--1-1--3-3--|
E---------------------------------|

Max:
--------------3-2-3--3-2-3--3-2-3--3-2-3---|
H-------------0------3------1------3-------|
G------------------------------------------| X4
D------------------------------------------|
A------------------------------------------|
E------------------------------------------|

Ref:

Jo:
e-----------------------------------------------------------------|
H-----------------------------------------------------------------|
G-----------------------------------------------------------------|
D-----------3--3-3-3-3-3-3--10-101010101010-5--5-5-5-5-5-5-- -----|
A-----------3--3-3-3-3-3-3--10-101010101010-5--5-5-5-5-5-5--------|
E-----------1--1-1-1-1-1-1--8--8-8-8-8-8-8--3--3-3-3-3-3-3--------|

       e---------------------------------|
       H---------------------------------|
       G---------------------------------|
 ----> D--7--7-7-7-7-7-7--8--8-8-8-8-8-8-| x2
       A--7--7-7-7-7-7-7--8--8-8-8-8-8-8-|
       E--5--5-5-5-5-5-5--6--6-6-6-6-6-6-|

Max:
e-----------1--1-1-1-1-1-1--8--8-8-8-8-8-8--3--3-3-3-3-3-3--------|
H-----------1--1-1-1-1-1-1--8--8-8-8-8-8-8--3--3-3-3-3-3-3--------|
G-----------2--2-2-2-2-2-2--9--9-9-9-9-9-9--4--4-4-4-4-4-4--------|
D-----------3--3-3-3-3-3-3--10-101010101010-5--5-5-5-5-5-5-- -----|
A-----------3--3-3-3-3-3-3--10-101010101010-5--5-5-5-5-5-5--------|
E-----------1--1-1-1-1-1-1--8--8-8-8-8-8-8--3--3-3-3-3-3-3--------|

       e--5--5-5-5-5-5-5--6--6-6-6-6-6-6-|
       H--5--5-5-5-5-5-5--6--6-6-6-6-6-6-|
       G--6--6-6-6-6-6-6--7--7-7-7-7-7-7-|
 ----> D--7--7-7-7-7-7-7--8--8-8-8-8-8-8-| x2
       A--7--7-7-7-7-7-7--8--8-8-8-8-8-8-|
       E--5--5-5-5-5-5-5--6--6-6-6-6-6-6-|
Tap to rate this tab
 
# A B C D E F G H I J K L M N O P Q R S T U V W X Y Z