Song name
# A B C D E F G H I J K L M N O P Q R S T U V W X Y Z

Killers - Show You How tab

-------------------------------------------------------------------------------
			     Show You How - The Killers
-------------------------------------------------------------------------------
Tabbed by: Cory
Email: aggman101@yahoo.com

Tuning: Standard

Intro
I gotta tell ya
I'll make it better
But i know there's somethin' i needed to say
When i was out, though
Maybe you were better alone
I know i'll make it home
e|---------------------------------------------------------------------------|
B|---------------------------------------------------------------------------|
G|-(No Guitar)---------------------------------------------------------------|
D|---------------------------------------------------------------------------|
A|---------------------------------------------------------------------------|
E|---------------------------------------------------------------------------|

Verse 1
She told me sweet thang
Run a labour
In your shoes
Touch me til i follow in love
I wanna help her
Maybe we were better alone
I wanna show you how
e|---------------------------------------------------------------------------|
B|---------------------------------------------------------------------------|
G|-7777-4444-----------------------------------------------------------------|
D|-xxxx-xxxx-5555-7777-------------------------------------------------------|
A|-5555-2222-xxxx-xxxx-------------------------------------------------------|
E|-----------3333-5555-------------------------------------------------------|x4

Solo 1
e|------------------10-10--9-9--7-7---5-5~-----------------------------------|
B|----------10---------------------------------------------------------------|
G|-11-11-12---7~-/7-------7----7----6-----11-11-12-11-7~-7-12-11-7-9~--------|
D|---------------------------------------------------------------------------|
A|---------------------------------------------------------------------------|
E|---------------------------------------------------------------------------|

e|---------------------------------------------------------------------------|
B|----------10---------------------------------------------------------------|
G|-11-11-12---7~-7-12-12-11-9~-9-9-9/11-9-7~-7-12-11-7-9/--------------------|
D|---------------------------------------------------------------------------|
A|---------------------------------------------------------------------------|
E|---------------------------------------------------------------------------|

Verse 2
And then we walked out
Make it pay now
I said i want it but i never alone
I wanna show you
Maybe we were somethin' uncool
I wanna make you sing
e|---------------------------------------------------------------------------|
B|---------------------------------------------------------------------------|
G|-7777-4444-----------------------------------------------------------------|
D|-xxxx-xxxx-5555-7777-------------------------------------------------------|
A|-5555-2222-xxxx-xxxx-------------------------------------------------------|
E|-----------3333-5555-------------------------------------------------------|x4

Solo 2
e|-/22(Tremelo Pick)-22-22-22-22-22-22-20b-20b-17-19h20p19h20p19-17----------|
B|---------------------------------------------------------------------------|
G|---------------------------------------------------------------------------|
D|---------------------------------------------------------------------------|
A|---------------------------------------------------------------------------|
E|---------------------------------------------------------------------------|

e|-17-17-17-17-17-19-19-17-17-15-15-15-15-15-14-14-15-15-14-14-12-12-10-10---|
B|---------------------------------------------------------------------------|
G|---------------------------------------------------------------------------|
D|---------------------------------------------------------------------------|
A|---------------------------------------------------------------------------|
E|---------------------------------------------------------------------------|

e|-5-5-5-5-5-5-5-9-5-7-5-7-5h9-----------------------------------------------|
B|---------------------------------------------------------------------------|
G|---------------------------------------------------------------------------|
D|---------------------------------------------------------------------------|
A|---------------------------------------------------------------------------|
E|---------------------------------------------------------------------------|

e|------------------10-10--9-9--7-7---5-5~-----------------------------------|
B|----------10---------------------------------------------------------------|
G|-11-11-12---7~-/7-------7----7----6-----11-11-12-11-7~-7-12-11-7-9~--------|
D|---------------------------------------------------------------------------|
A|---------------------------------------------------------------------------|
E|---------------------------------------------------------------------------|

e|-12brbr~-12-12-17-12-17-17-12-191919-171717-151515-141414-14-14-14-14------|
B|---------------------------------------------------------------------------|
G|---------------------------------------------------------------------------|
D|---------------------------------------------------------------------------|
A|---------------------------------------------------------------------------|
E|---------------------------------------------------------------------------|

e|-15-15-15-17-17-17-15-15-15-14~~~~~~~~~~-----------------------------------|
B|---------------------------------------------------------------------------|
G|---------------------------------------------------------------------------|
D|---------------------------------------------------------------------------|
A|---------------------------------------------------------------------------|
E|--------------------------------------------\12----------------------------|

YEAH!

| /  slide up
| \  slide down
| h  hammer-on
| p  pull-off
| b  bend
| r  release bend
| ~  vibrato
| +  harmonic
| x  Mute note
===============================================================================
Tap to rate this tab
# A B C D E F G H I J K L M N O P Q R S T U V W X Y Z