Song name
# A B C D E F G H I J K L M N O P Q R S T U V W X Y Z

Killers - Move Away tab

----------------------------------------------------------------------------
			     Move Away - The Killers
----------------------------------------------------------------------------
Tabbed by: Jaden Sherrard

Tuning: Standard

Intro
e|-----------------17--\13---|
B|--0--~-----------x---------|
G|--0--~---------15----------|
D|--0--~--------15-----------|
A|--2--~---------------------|
E|--3--~---------------------|

Play this at the end of the bass riff
e|--------------|
B|----3--~--~---|
G|----7--~--~---|  (let it ring)
D|--------------|
A|--------------|
E|--------------|

e|--101010101010-------7---0--(0)--|
B|----------------8-~--------------|
G|---------------------------------|
D|---------------------------------|
A|---------------------------------|
E|---------------------------------|

Verse (palm muted)
e|-------------------------------------------------|
B|-------------------------------------------------|
G|------------------12121212-----------------------|
D|--7/9999--7/9999--10101010-----------------------|
A|--5/7777--5/7777------------10101010\9-9-777777--|
E|----------------------------8-8-8-8-\7-7-555555--|

Chorus
e|---------77-x-777-xx--77\---|
B|--0-~----55-x-555-xx--55\---|
G|--0-~-----------------------|
D|--0-~-----------------------|
A|--2-~-----------------------|
E|--3-~-----------------------|

Chords /2:06 into the song
e|--0-~---------------------------------|
B|--0-~----1-~---7-~--3-~------5-~---|
G|--0-~----4-~---6-~--3-~------4-~---|
D|--2-~----5-~---0-~--0-~------0-~---|
A|--3-~----0-~--------0-~------0-~---|
E|-----------------------------0-~---|

e|----------------------------------------------------|
B|----------------------------------------------------|
G|-----4--------4--------4--------4--------2/4--4-~---|
D|--2-----2--------2--------2--------2----------------|
A|-----------6--------6--------5--------4-------------|
E|----------------------------------------------------|

e|-------------------------------------|
B|-------------------------------------|
G|--99999999888888887777777766666666---|
D|--99999999888888887777777766666666---|
A|--77777777666666665555555544444444---|
E|-------------------------------------|

Last Chorus
e|--0--~---77-x-777-xx-77\---|
B|--1--~---55-x-555-xx-77\---|
G|--3--~---------------------|
D|--3--~---------------------|
A|--3--~---------------------|
E|--0--~---------------------|

Ending Note
e|---10-10-10-~-~-~--|
B|-------------------|
G|-------------------|
D|-------------------|
A|-------------------|
E|-------------------|

Thats it, Have fun with it.
Tap to rate this tab
 
# A B C D E F G H I J K L M N O P Q R S T U V W X Y Z