Song name
# A B C D E F G H I J K L M N O P Q R S T U V W X Y Z

Killers - Under The Gun tab

Help us improve GuitareTab! Take a short survey!
-------------------------------------------------------------------------------
			  Under the Gun - The Killers
-------------------------------------------------------------------------------
Tabbed by: fr3
Email: fran_rafa_91@hotmail.com

Tuning: Standard Tuning


If you are playing the song with only one guitar, i think this is the most accurate way:


Verse
e|----9----9----9-----9----9----9----9----9----|
B|----------------13-------------------13------|
G|-11---11---11---------10---10---10-----------| Play x4
D|---------------------------------------------|
A|---------------------------------------------|
E|---------------------------------------------|

PreChorus
e|-----------------------------------------------------------------------|
B|-----------------------------------------------------------------------|
G|------------------------------------------------------------88888888---|
D|-8888888888888888-6666666666666666-8888888888888888-6666666666666666---|
A|-8888888888888888-6666666666666666-8888888888888888-6666666666666666---|
E|-6666666666666666-4444444444444444-6666666666666666-4444444444444444---|

Chorus
e|---------------------------9 9 9 9 9 9 9 9 9 9 9 9 9 9 9 9 --|
B|---------------------------10101010101010101010101010101010--|
G|-66666666-1010101010101010-10101010101010101010101010101010--| Play x2
D|-66666666-1010101010101010-8 8 8 8 8 8 8 8 8 8 8 8 8 8 8 8 --| 
A|-44444444-8 8 8 8 8 8 8 8------------------------------------|
E|-------------------------------------------------------------|

Verse
e|----9----9----9-----9----9----9----9----9----|
B|----------------13-------------------13------|
G|-11---11---11---------10---10---10-----------| Play x4
D|---------------------------------------------|
A|---------------------------------------------|
E|---------------------------------------------|

PreChorus
e|-----------------------------------------------------------------------|
B|-----------------------------------------------------------------------|
G|------------------------------------------------------------88888888---|
D|-8888888888888888-6666666666666666-8888888888888888-6666666666666666---|
A|-8888888888888888-6666666666666666-8888888888888888-6666666666666666---|
E|-6666666666666666-4444444444444444-6666666666666666-4444444444444444---|

Chorus
e|---------------------------9 9 9 9 9 9 9 9 9 9 9 9 9 9 9 9 --|
B|---------------------------10101010101010101010101010101010--|
G|-66666666-1010101010101010-10101010101010101010101010101010--| Play x2
D|-66666666-1010101010101010-8 8 8 8 8 8 8 8 8 8 8 8 8 8 8 8 --| 
A|-44444444-8 8 8 8 8 8 8 8------------------------------------|
E|-------------------------------------------------------------|

Bridge
e|---------66666666----------44468888----| (I think this is played with
B|---------66666666----------44444444----|  an alternate guitar. it it's 
G|---------------------------------------|  too difficult, just keep playing
D|-8888888888888888--6666666666666666----|  the 4th fret on the 1st string.)
A|-8888888888888888--6666666666666666----|
E|-66666666----------44444444------------| Play x2

e|--------------------------------------------------------|
B|--------------------------------------------------------|
G|-1111111111111111111111111111111--101010101010101010----|
D|-1111111111111111111111111111111--101010101010101010----| 
A|-9 9 9 8 8 8 8 8 9 9 9 9 9 9 9 9--8 8 8 7 7 7 7 7 8 ----|
E|--------------------------------------------------------|

PreChorus
e|-----------------------------------------------------------------------|
B|-----------------------------------------------------------------------|
G|------------------------------------------------------------88888888---|
D|-8888888888888888-6666666666666666-8888888888888888-6666666666666666---|
A|-8888888888888888-6666666666666666-8888888888888888-6666666666666666---|
E|-6666666666666666-4444444444444444-6666666666666666-4444444444444444---|

Chorus
e|---------------------------9 9 9 9 9 9 9 9 9 9 9 9 9 9 9 9 --|
B|---------------------------10101010101010101010101010101010--|
G|-66666666-1010101010101010-10101010101010101010101010101010--| Play x2
D|-66666666-1010101010101010-8 8 8 8 8 8 8 8 8 8 8 8 8 8 8 8 --| 
A|-44444444-8 8 8 8 8 8 8 8------------------------------------|
E|-------------------------------------------------------------|

Outro
e|---------|
B|---------|
G|-555-6---|
D|-555-6---| 
A|-333-4---|
E|---------|

| /  slide up
| \  slide down
| h  hammer-on
| p  pull-off
| ~  vibrato
| +  harmonic
| x  Mute note
===============================================================================
Related for Under The Gun tab