Song name
# A B C D E F G H I J K L M N O P Q R S T U V W X Y Z

Killers - When You Were Young tab

~ vibrato                                                   when you were
s Slide                                                        young(3:39)

gtr 2  nith fret ring on (from the second line)
|--9~~--9-9|--------------------------------------------------------------|
|--9~~--9-9|--------------------------------------------------------------|
|--9~~--9-9|-------------------------------------11-11-11-11-11-11-11-11--|
|----------|--9-9-9-9-9-9-9-9-11-11-11-13--13-13--9--9--9--9--9--9--9--9--|
|----------|--7-7-7-7-7-7-7-7-11-11-11-13--13-13--9--9--9--9--9--9--9--9--|
|----------|--7-7-7-7-7-7-7-7--9--9--9-11--11-11--------------------------|

----------------------------------|
----------------------------------| Repeat from the ninthe fret ring on
----------------------------------|
--9-9-9-9-9-9-9-9-----------------|
--7-7-7-7-7-7-7-7-----------------|
--7-7-7-7-7-7-7-7-----------------|


gtr 1
play when gtr 2 start their bit on the second time through

|-----------------------------------|
|-------9--------------9------------|
|---------11-------------11---------|
|----10------8~~----10--------------|
|--12-------------12--------12------|
|-----------------------------------|


verse 1
 gtr2
|----------------------------------------------------------------------|
|----------------------------------------------------------------------|
|----------------------------------------------12-12-12-12-12-12-12-12-|
|--10-10-10-10-10-10-10-10-12-12-12-14--14-14--------------------------|
|----------------------------------------------------------------------|
|----------------------------------------------------------------------|

---------------------------------------------------|
---------------------------------------------------|
---------------------------------------------------|
--10-10-10-10-10-10-10-10-10-10-10-10-10-10-10-10--|
---------------------------------------------------|
---------------------------------------------------|


Gtr1 after gtr2 has finished
cram it in

|----------------------------------------|
|-------9~~-------11------12----12~~-----|
|-----------------------------------13~~-|
|----10--------12------13----------------|
|--12--------14------15------------------|
|----------------------------------------|

on the second verse
Chorus
gtr 2
|--------------------------------------------------------------|
|--------------------------------------------------------------|
|-------------------------------------11-11-11-11-11-11-11-11--|
|--9-9-9-9-9-9-9-9-11-11-11-13--13-13--9--9--9--9--9--9--9--9--|
|--7-7-7-7-7-7-7-7-11-11-11-13--13-13--9--9--9--9--9--9--9--9--|
|--7-7-7-7-7-7-7-7--9--9--9-11--11-11--------------------------|

----------------------------------|
----------------------------------| same as intro
--9-9-9-9-9-9-9-9-----------------|
--7-7-7-7-7-7-7-7-----------------|
--7-7-7-7-7-7-7-7-----------------|

gtr 1 chorus

|---------------------------------| If you listen to this song this bit
|-------9----------------9--------| it is actually played by a violin but
|---------11---------------11-----| gtr 1 isn't playing here so they can
|----12------8-s9-----12----------| play it if they want to.
|--10---------------10--------11--|
|---------------------------------|
   Come in when the lead singer says "YOUNG"


verse 2
gtr 2's part is the same as in verse 1

gtr 1
|------------9-11-------|
|--7~~-9-10~~-----7-9---| this is also played by a violin (same aplies)
|-----------------------|
|-----------------------|
|-----------------------|
|-----------------------|

Chorus

same for both parts


Bridge
Gtr 1
|------------------------------------------------|
|-------9~~-------11------12-------9~~------7~~--|
|------------------------------------------------|
|----10--------12------13-------10--------7------|
|--12--------14------15-------12---------9-------|
|------------------------------------------------|

Gtr 2 after gtr 1 has played their bit

|------------------------------------------------------------------|
|------------------------------------------------------------------|
|------------------------------------------------------------------|
|--9-9-9-9-9-9-9-9-9-9-9-9-9-9-9-9-9-9-9-9-9-9-9-9-9-9-9-9-9-9-9-9-|
|--7-7-7-7-7-7-7-7-7-7-7-7-7-7-7-7-7-7-7-7-7-7-7-7-7-7-7-7-7-7-7-7-|
|--7-7-7-7-7-7-7-7-7-7-7-7-7-7-7-7-7-7-7-7-7-7-7-7-7-7-7-7-7-7-7-7-|

--------------------------------------|
--------------------------------------|
--------------------------------------|
--9-9-9-9-9-9-9-9-11-11-11-13--13-13--|
--7-7-7-7-7-7-7-7--9--9--9-11--11-11--|
--7-7-7-7-7-7-7-7--9--9--9-11--11-11--|

gtr 1
|-------------------------------------16--------------------16---------|
|------16~~~~~~~~~~~~~~------------------19--------------------19------|
|-----------------------11--s13----16-------15~-18-16----16------------|
|--------------------------------18--------------------18---------18~~-|
|----------------------------------------------------------------------|
|----------------------------------------------------------------------|


----------------------------|
----------------------------|
----------------------------|
--14--13--------------------|
----------16--14-13-11-9~~~-|
----------------------------|

Bridge 2 Electro piano part (1:54(time it happens))

near the end of the bridge

|---------------------------------14~~~~~~~~-|
|------------16~~~~~~~~----------------------|
|-----------------------11--s13--------------|
|--16~~~~~~~---------------------------------|
|--------------------------------------------|
|--------------------------------------------|


last chorus

gtr 2
|--------------------------------------------------------------|
|--------------------------------------------------------------|
|-------------------------------------11-11-11-11-11-11-11-11--|
|--9-9-9-9-9-9-9-9-11-11-11-13--13-13--9--9--9--9--9--9--9--9--|
|--7-7-7-7-7-7-7-7-11-11-11-13--13-13--9--9--9--9--9--9--9--9--|
|--7-7-7-7-7-7-7-7--9--9--9-11--11-11--------------------------|


-------------------| repeat
-------------------|
-------------------|
--9-9-9-9-9-9-9-9--|
--7-7-7-7-7-7-7-7--|
--7-7-7-7-7-7-7-7--|


|------------------------------------------------------------------|
|------------------------------------------------------------------|
|------------------------------------------------------------------|
|--9-9-9-9-9-9-9-9-9-9-9-9-9-9-9-9-9-9-9-9-9-9-9-9-9-9-9-9-9-9-9-9-|
|--7-7-7-7-7-7-7-7-7-7-7-7-7-7-7-7-7-7-7-7-7-7-7-7-7-7-7-7-7-7-7-7-|
|--7-7-7-7-7-7-7-7-7-7-7-7-7-7-7-7-7-7-7-7-7-7-7-7-7-7-7-7-7-7-7-7-|

|--------------------------------------------------------------|
|--------------------------------------------------------------|
|-------------------------------------11-11-11-11-11-11-11-11--|
|--9-9-9-9-9-9-9-9-11-11-11-13--13-13--9--9--9--9--9--9--9--9--|
|--7-7-7-7-7-7-7-7-11-11-11-13--13-13--9--9--9--9--9--9--9--9--|
|--7-7-7-7-7-7-7-7--9--9--9-11--11-11--------------------------|


-------------------| repeat (x3)
-------------------|
-------------------|
--9-9-9-9-9-9-9-9--|
--7-7-7-7-7-7-7-7--|
--7-7-7-7-7-7-7-7--|

|--------------------|
|--------------------| big long note
|--9~~~~~~~~~~~~~~---|
|--9~~~~~~~~~~~~~~---|
|--7~~~~~~~~~~~~~~---|

gtr 1

|-------16--------------------16----------|
|----------19--------------------19-------| repeat 3 times
|-----------------------------------------|
|----16-------15-18-16-----16-------------|
|--18--------------------18---------18~~~-|
|-----------------------------------------|

DONE

This is my first tab
Tap to rate this tab
 
# A B C D E F G H I J K L M N O P Q R S T U V W X Y Z