Song name
# A B C D E F G H I J K L M N O P Q R S T U V W X Y Z

Killers - Read My Mind tab

First tab here so cut me some slack

Not really much at the start but if you want play this palm muted

(11/05/08) Update. Just realised my guitar was horribly out of tune whilst doing this, 
be sorted now.

                (tens here mind)
A -66666666666101010106666666655555555-

Until it finally gets to:

(Read my mind)           x3
E---------------------------------------------------|
B------------15------------------------15-----------|
G--11-12-11-----11-12-11------11-12-11----11-12-9---|
D---------------------------------------------------|
A---------------------------------------------------|
E---------------------------------------------------|


Then the crazy keyboard repeats again, play the above again and then the chorus. Im sure
other versions are right, with the crazy chords, but I can't be arsed to work it out so
and easier way

Chorus
            (twelves and tens here)
E----------------------------------------------------|
B----------------------------------------------------|
G-----------1212121212121212-------------------------|
D99999999---1212121212121212----7777777777777777-----|     x2
A99999999---1010101010101010----7777777777777777-----|
E77777777---1010101010101010----5555555555555555-----|


E----------------------------------------------------|
B----------------------------------------------------|
G-----------1212121212121212-------------------------|
D99999999---1212121212121212---7777-8888-9999-4444---|
A99999999---1010101010101010---7777-8888-9999-4444---|
E77777777---1010101010101010---5555-6666-7777-2222---|


(over the top of below)
A----12-10-8-----------10-8-7-----------


E-------------------------------------|
B-------------------------------------|
G-------------------------------------|
D5555555555555555-7777777777777777----|
A5555555555555555-7777777777777777----|
E3333333333333333-5555555555555555----|

Then its verse chorus gain, until the solo
(all tens, elevens etc, no 1's then 0's)


E---------------------------------------------------------------------|
B-1515151515151515----------------------------------------------------|
G-----------------1414141414141414-1212-1414-1111-1212-9-11-9-11------|
D---------------------------------------------------------------------|
A---------------------------------------------------------------------|
E---------------------------------------------------------------------|


E---------------------------------------------------------------------|
B--------8----------------8-------------------------------------------|
G--1111--11b-11---9-11-9--11b-11--9h11p9------------------------------|
D----------------------------------------11--12--11--11-12-14-12------|
A---------------------------------------------------------------------|
E---------------------------------------------------------------------|


E---------------------------------------------------------------------|
B------------------121212----141414---15151515-17171717-17b-17b-------|
G-1212/14-141414------------------------------------------------------|
D---------------------------------------------------------------------|
A---------------------------------------------------------------------|
E---------------------------------------------------------------------|

Then the rest of the song is just parts of above anyway.
Just listen to it and this should make sense, it seems a tad freaky to me, but me. Enjoy.
Tap to rate this tab
 
# A B C D E F G H I J K L M N O P Q R S T U V W X Y Z